18 Hertz

Look Inside

18 Hertz

tabs Advanced advanced

by  NL STRUMMER

save to print version add songbook text version e-mail correct tuner
chordsukulelecavacokeyboardtabbassdrumsharmonicaflute Guitar Pro
close

there isn't a video lesson for this song

chords

Look Inside

	  		Listen to the song on Garageband.com under the band name 18 Hertz  
and you will get a feel for the strumming and sychopation. 


Verse 1 

         Look Inside 
         What do you really see 
         Is it too black 
         Too black for me 
         Look inside 
         What do you really see 
         Is there room in your blackness 
         For someone like me 

G-------------------------------------------------- 

D-------------------------------------------------- 

A--2--5/--7----2---5/---7---22--5/---77---22--5/--77 

E--0--3/--5----0---3/---5---00--3/---55---00--3/--55 


This is the short break after verse 1 

G------------------------------------------------- 

D------------------------------------------------- 

A-----22---55----77----2-------------------------- 

E-----00---33----55----0-------------------------- 


Verse 2 

        I'm ready  
        As you can plainly see 
        Are you ready 
        For someone like me 
        Look inside  
        What do you really see 
        Are you ready 
        For a white boy like me 


G-------------------------------------------------- 

D-------------------------------------------------- 

A--2--5/--7----2---5/---7---2--5/---7---2--5/---7 

E--0--3/--5----0---3/---5---0--3/---5---0--3/---5 


This is the break after verse 2 

G-------------------------------------------------- 

D-------------------------------------------------- 

A--22--5/--7----22---5/---77 

E--02--3/--5----00---3/---55 


Verse 3 

         Look Inside 
         What do you really see 
         Is it too black 
         Too black for me 
         I'm tearing down walls 
         You're putting up fences 
         How can I break through 
         Your defences 



G-------------------------------------------------- 

D-------------------------------------------------- 

A--2--5/--7----2---5/---7---22--5/---77---22--5/--77 

E--0--3/--5----0---3/---5---00--3/---55---00--3/--55 
		  

See also:

tabs Player - Baby Come Back tabs Lynyrd Skynyrd - Simple Man tabs Johnny Cash - Folsom Prison Blues (key of E) tabs Jimi Hendrix - Voodoo Child tabs Lynyrd Skynyrd - That smell (full song) tabs Creedence Clearwater Revival - Suzie q
e-chords

Other versions:

tabs 18 Hertz - Look Inside
auto scroll beats size up size down change color hide chords drawings
tab show chords e-chords YouTube Clip e-chords hide all tabs e-chords go to top tab

share