18 Hertz

The Black Tower

18 Hertz

chords

by  NL STRUMMER

save to print version add songbook text version e-mail correct tuner
chordsukulelecavacokeyboardtabbassdrumsharmonicaflute Guitar Pro
close

there isn't a video lesson for this song

chords

The Black Tower

	  		This song is played with heavy distortion and can be  
played with downstrokes in verses and the Chorus  
using 8ths or you can use 16th if you want a fast  
metal sounding song with heavy lyrics.  
Opening Riff: 

A-----------------2-3-5---------------2-3-5--5/2---------------- 

E--------0-3-0------------0-3-0---------------------------------- 

Verse 1 

B5            Way off in the                  
C5            distance I can  
C5 D5         see the black              
D5 B5         tower 
  


Verse 2 

B5            Were men of                  
C5            deception sell their  
D5 C5        souls              
D5 B5         for power 
  

Verse 3 

Way off in the distance  
I can see no light 
Only signs that are pointing 
to graveyards in the night 


Verse 4 

Way off in the distance  
I can see the black clouds 
Falling down from heaven 
Like funeral shrouds. 



Play Chorus Riff Throughout: 


D---------0-------------0----------------0-------------0---------  

A------9----9--------9-----9----------7----7--------7----7------- 

E---7---------7---7-----------7----5----------5---5--------5----- 


D---------0-------------0----------------0-------------0--------- 

A------5----5--------5-----5----------4----4--------4----4------- 

E---3---------3---3-----------3----2-------------2--------------- 


D----------0----------------------------------------------------- 

A------4-----4--------------------------------------------------- 

E---2-----------2------------------------------------------------ 

Chorus 

I can help you said the blind man 
If you just show me the way 
I can't see 
But I can see clearly today 
If you just tell me 
What I need to say 
I can point my finger this or the other way 

Verse 4 

Way off in the distance  
I can see the sun turning red 
And the air turning black 
All around our heads 

Verse 5 

Way off in the distance  
I see the missiles soar 
And all the armies of the world 
Getting ready for one last war 

Chorus Again 

Opening Riff Again to fade out 
		  

Full key step upFull key step up
Half key step upHalf key step up
Half key step downHalf key step down
Full key step downFull key step down
hide glossary

See also:

chords The Mamas and Papas - Dream a little dream of me chords Johnny Cash - Ghost Riders In The Sky chords Johnny Cash - Hurt chords Carpenters - Killing Me Softly chords Johnny Cash - Folsom Prison Blues chords Creedence Clearwater Revival - Have You Ever Seen The Rain
e-chords

Other versions:

chords 18 Hertz - The Black Tower
auto scroll beats size up size down change color hide chords simplify chords drawings columns
tab show chords e-chords YouTube Clip e-chords hide all tabs e-chords go to top tab

share