10 Years

Selling Skeletons

10 Years

tabs

by  LINEKERS

save to print version add songbook text version e-mail correct tuner
chordsukulelecavacokeyboardtabbassdrumsharmonicaflute Guitar Pro
close

there isn't a video lesson for this song

chords

Selling Skeletons

	  		

Tuning: Drop C# (C#,G#,C#,F#,A#,D#) 

Intro (clean) 
D#|----------------------------------------------------------------| 
A#|------1------1------1------1----------2-------2-------2-------2-| 
F#|-2--2---2--2---2--2---2--2---2--1-1-1---1-1-1---1-1-1---1-1-1---| 
C#|----------------------------------------------------------------| x2 
G#|----------------------------------------------------------------| 
C#|----------------------------------------------------------------| 

Riff 1 (distortion) 
D#|-------------------------------------------------| 
A#|-------------------------------------------------| 
F#|-------------------------------------------------| 
C#|-7-----7---5-----7---5---7-----7---5-----7---8-8-| 
G#|-5-0-0-5-0-3-0-0-5-0-3-0-5-0-0-5-0-3-0-0-5-0-6-6-| 
C#|---0-0---0---0-0---0---0---0-0---0---0-0---0-----| 
      * *   *   * *   *   *   * *   *   * *   * 

D#|-------------------------------------------------| 
A#|-------------------------------------------------| 
F#|-------------------------------------------------| 
C#|-7-----7---5-----7---5---7-----7---5-----8-8-8-8-| 
G#|-5-0-0-5-0-3-0-0-5-0-3-0-5-0-0-5-0-3-0-0-6-6-6-6-| 
C#|---0-0---0---0-0---0---0---0-0---0---0-0---------| 
      * *   *   * *   *   *   * *   *   * * 

Riff 2 (clean, let all notes ring out)   "Lose control as you go for broke..." 
D#|----1---------1---------0---------0----| 
A#|-------3---------3---------3---------3-| 
F#|-2---------2---------2---------0-------| 
C#|---------------------------------------| 
G#|---------------------------------------| 
C#|---------------------------------------| 

Play Riff 1 x1 
Play Riff 2 x2   "Pacing your doubt until the brain swells..." 
Play Riff 1 x2   "You're desperately selling skeletons..." 

Riff 3   "Everything falls apart..." 
D#|---------------------------------| 
A#|---------------------------------| 
F#|---------------------------------| 
C#|-------3-3-3-------3-3-3-----2-2-| 
G#|-------5-5-5-------5-5-5-----3-3-| 
C#|-0-0-0-------0-0-0-------0-0-----| 

Play Riff 6 x6   "Relying on..." 

Fill 1 
D#|---------------------------------------| 
A#|---------------------------------------| 
F#|---------------------------------------| 
C#|-0~------------------------------------| 
G#|-0~-----pickslide-down<----------------| 
C#|-0~----------------------pickslide up>-| 

Riff 4 (clean w/ Chorus and reverb)   "Everyone's eye on the prize..." 
D#|-----12------12---------11-----11-| 
A#|-10------10----------9------9-----| 
F#|----------------------------------| 
C#|----------------------------------| 
G#|----------------------------------| 
C#|----------------------------------| 

Play Riff 4 x2   "We live and die by rolling the dice..." 

Riff 5   "Cutting me to the core..." 
D#|---------------------------------------------| 
A#|---------------------------------------------| 
F#|---------------------------------------------| 
C#|-------------------------------------7--7--7-| 
G#|-7-7-7-7--7-7-7-7--7-7-7-7--8-8-8-8--5--5--5-| 
C#|-7-7-7-7--7-7-7-7--7-7-7-7--7-7-7-7--0--0--0-| 
                                         
Play Riff 5 x4   "...for more and more and more..." 
Play Riff 3 x6   "Everything falls apart..." 
Play Riff 1 x1   "Keep relying on..." 

Enjoy!! 
		  

See also:

tabs Red Hot Chili Peppers - Dosed tabs Red Hot Chili Peppers - Otherside (intro) tabs Red Hot Chili Peppers - Around The World (ver. 2) tabs Alesana - Apology tabs Red Hot Chili Peppers - Scar Tissue tabs Red Hot Chili Peppers - Dani California (ver.2)
e-chords

Other versions:

tabs 10 Years - Selling Skeletons
auto scroll beats size up size down change color hide chords drawings
tab show chords e-chords YouTube Clip e-chords hide all tabs e-chords go to top tab

share