The Darkness

Love On The Rocks With No Ice (ver. 3)

The Darkness

chords

save to print version add songbook text version e-mail correct tuner
chordsukulelecavacokeyboardtabbassdrumsharmonicaflute Guitar Pro
close

there isn't a video lesson for this song

chords

Love On The Rocks With No Ice (ver. 3)

	  		 The Darkness 
Love on the rocks with no ice 
 
Intro 
E ---------------------------------------------------------------------------------------------- 
B ----------------------------------0----------------------------------------5----5------------- 
G ------------0------------------------------------------------0---------------3-4---3-4b5------ 
D ---------------------------0--2--4----4--2--0-2----------------------------------------------- 
A ----0---2-4-----4--2-0-2------------------------0----2--4--0---4--2--0--2-0------------------- 
E -------------------------0-------------------------------------------------------------------- 
 
 
E --------------------------------------------------------------------------------- 
B --------------------------------------------------------------------------------- 
G --------------------------------------------------------------------------------- 
D --------------------------------------------------------------------------------- 
A ------2---2-----12----2---8---7--5--2---7--7---5--7--2---8--7--5b---------------- 
E ------0---0-----10----0---6---5--3--0---5--5---3--5--0---6--5--3b---------------- 
 
Have fun!Darkness rule. 
 
[email protected] 
 

		  

See also:

chords Foo Fighters - Everlong chords Roy Orbison - Pretty Woman chords Foreigner - I Want To Know What Love Is chords Guns N' Roses - Don't Cry chords America - Sister Golden Hair chords Guns N' Roses - Knockin' On Heaven's Door
e-chords

Other versions:

chords The Darkness - Love On The Rocks With No Ice (ver. 3)
auto scroll beats size up size down change color hide chords simplify chords drawings columns
tab show chords e-chords YouTube Clip e-chords hide all tabs e-chords go to top tab

share