City And Colour

Sorrowing Man (acoustic)

City And Colour

chords Beginner beginner

by  VICTBORGES

save to print version add songbook text version e-mail correct tuner
chordsukulelecavacokeyboardtabbassdrumsharmonicaflute Guitar Pro
close

there isn't a video lesson for this song

chords

Sorrowing Man (acoustic)

	  		Em           D       Em 

e|--0-----------0--------0---| 
B|--0-----------3--------0---| 
G|--0-----------0--------0---| Repeat 
D|--2-0h2-0-----4--------2---| 
A|--2-----------5--------2---| 
E|--0-------3/5-5--3-3/5-0---| 

Chorus 

Note: 
I'm not sure what the name of all these chords are. 

   Oh  how  you have lost your  way 

e|--0---0----0---------0---------0-------------------| 
B|--0---8----3---------1---------1--0h1p0------------| 
G|--0---0----0---------2---------0-------------------| 
D|--5---9----4---------2---------2-------------------|  
A|--7---10---5---------0---------3-------------------| 
E|--7---10---5---------x---------3----------3-3/5----| Repeat again 

************************************ 
| \   slide down 
| h   hammer-on 
| p   pull-off 
| x   Mute note 

************************************ 
		  

Full key step upFull key step up
Half key step upHalf key step up
Half key step downHalf key step down
Full key step downFull key step down
hide glossary

See also:

chords Anne Murray - You Needed Me chords The Strumbellas - Spirits chords Neil Young - Don't let it bring you down chords Shania Twain - Man! I Feel Like A Woman! chords Gordon Lightfoot - If You Could REad My Mind chords Neil Young - Alabama
e-chords

Other versions:

chords City And Colour - Sorrowing Man chords City And Colour - Sorrowing Man (acoustic)
auto scroll beats size up size down change color hide chords simplify chords drawings columns
tab show chords e-chords YouTube Clip e-chords hide all tabs e-chords go to top tab

share