Tony Orlando & Dawn

Tie A Yellow Ribbon Round The Ole Oak Tree

Tony Orlando & Dawn

bass

by  ABELAMIN

save to print version add songbook text version e-mail correct tuner
chordsukulelecavacokeyboardtabbassdrumsharmonicaflute Guitar Pro
close

there isn't a video lesson for this song

chords

Tie A Yellow Ribbon Round The Ole Oak Tree

	  		G|-----------0-2---2-----2-0---0-----0---0---------------0-2---2-----5-------| 
D|-3---3-3-3-----2---2-2-----0---0-0-----------3---3---3-----2---2-----------| 
A|---3---------------------------------3---3-3---3---3-------------3---3-----| 
E|---------------------------------------------------------------------------| 

G|-----0---0---0-----3---------0---0-----3---------3-------------------------| 
D|-2-4---0---0---0-----3-0---0---0---0-----------3---3-----------0-2-3---3---| 
A|-----------------1-------0-----------1---3-3-1-------3-3-3-3-3-------3---3-| 
E|---------------------------------------------------------------------------| 


G|---2---2---2---0--5---0-------0---0-------------------------2-7-------0----| 
D|-3---2---2--------------0-2-4---0---0-----3---0-----------0-----7---7---0--| 
A|-------------3-----3------------------1-4---4---1-3-3-4-4---------5-------1| 
E|---------------------------------------------------------------------------| 

G|-3-0-----5---------------------------0-2---2-----5-------0---0---0---------| 
D|-----0-----3---0-0---0-----3---3---3-----2---2-----0-2-4---0---0---0-------| 
A|-------3-----3---------3-3---3---3-------------3---------------------1-----| 
E|-------------------3-------------------------------------------------------| 


G|-3---------0---0-----3---------3---------------------------2---2---2---0-5-| 
D|---3-0---0---0---0-----------3---3-----------0-2-3---3---3---2---2---------| 
A|-------0-----------1---3-3-1-------3-3-3-3-3-------3---3-------------3-----| 
E|---------------------------------------------------------------------------| 

G|---0---------0---0-----------------------2-7-------0-----3-0-----5---------| 
D|-----0-2-4-0---0-------3---0-----------0-----7---7---0-------0-----3---3---| 
A|-3-----------------1-4---4---1-3-3-4-4---------5-------1-------3-----3-----| 
E|---------------------------------------------------------------------------| 


G|-----2---2-----5-------0---0-0-----------0-2---2-----5---------0-0-3-------| 
D|---3---2---2-----0-2-4---0-----3---3---3-----2---2-------0-2-4-------3-0---| 
A|-3-----------3-------------------3---3-------------3---3-------------------| 
E|---------------------------------------------------------------------------| 

G|-0-0---3-0-----5-----------0-2---2-----5---------0---0-0-----------0-2-----| 
D|-----------0-----3---3---3-----2---2-----0-0-2-4---0-----3---3---3---------| 
A|-----1-------3-----3---3-------------3---------------------3---3-----------| 
E|---------------------------------------------------------------------------| 


G|---2-----5-------0---0-0-----------0-2---2-----5-------0---0-0-------------| 
D|-2---2-----0-2-4---0-----3---3---3-----2---2-----0-2-4---0-----------------| 
A|-------3-------------------3---3-------------3-----------------------------| 
E|---------------------------------------------------------------------------| 
		  

See also:

bass Creedence Clearwater Revival - Hindway bass Creedence Clearwater Revival - Have You Eever Seen The Rain bass Johnny Cash - Ring Of Fire bass Doobie Brothers - Listen To The Music bass Johnny Cash - Folsom Prison Blues bass Beach Boys - Surfin Usa
e-chords

Other versions:

bass Tony Orlando & Dawn - Tie A Yellow Ribbon Round The Ole Oak Tree
auto scroll beats size up size down change color hide chords drawings
tab show chords e-chords YouTube Clip e-chords hide all tabs e-chords go to top tab

share