The Who

home > The Who

Quadrophenia Bass Tab

The Who

Difficulty: nolevelnolevel

by Pete%5FTownshend

tuner correct add songbook print version text version save to e-mail
chordsukulelecavacokeyboardtabbassdrumsharmonicsflute Guitar Pro
chords

Quadrophenia

Year: 1973 - Album: Quadrophenia

(Townshend)

  		Tuning : E A D G 	Time Signature: 4/4 
 
 |       |       |       |        |       |       |       |         
|--------------------------------|--------------------------------| 
|--------------------------------|3---3-----------3-----------1---| 
|--------------------------------|------------3-------1-----------| 
|--------------------------------|--------------------------------| 
 
 |       |       |       |        |       |       |       |         
|--------------------1-----------|--------------------------------| 
|----1-------3---1---------------|--------------------------------| 
|----------------------------1---|----1-------3---1---3-------4---| 
|--------------------------------|--------------------------------| 
 
 |       |       |       |        |       |       |       |         
|--------------------------------|--------------------------------| 
|--------------------1-------3---|----3-------0-2-3-----------1---| 
|----4-------4-------------------|--------------------1-----------| 
|--------------------------------|--------------------------------| 
 
 |       |       |       |        |       |       |       |         
|--------------------1-----------|--------------------------------| 
|----1-------1-------------------|--------------------------------| 
|----------------------------1---|----1-------0---1---3-------4---| 
|--------------------------------|--------------------------------| 
 
 |       |       |       |        |       |       |       |         
|--------------------------------|--------------0-----------------| 
|--------------------1-------3---|----3-------0---3-----------1---| 
|----4-------3---4---------------|--------------------1-----------| 
|--------------------------------|--------------------------------| 
 
 |       |       |       |        |       |       |       |         
|--------------------1-----------|--------------------------------| 
|----1---------1-1---------------|--------------------------------| 
|----------------------------1---|----1-------1-------3-------4---| 
|--------------------------------|--------------------------------| 
 
 |       |       |       |        |       |       |       |         
|--------------------------------|--------------------------------| 
|--------------------1-------3---|----3-------3---------------1---| 
|----4-------3---4---------------|--------------------1-----------| 
|--------------------------------|--------------------------------| 
 
 |       |       |       |        |       |       |       |         
|--------------------1-----------|--------------------------------| 
|----1-------1-------------------|--------------------------------| 
|----------------------------1---|----1---------1-1---3-------4---| 
|--------------------------------|--------------------------------| 
 
 |       |       |       |        |       |       |       |         
|--------------------------------|--------------------------------| 
|--------------------1-------3---|----3-----------3-----------1---| 
|----4---------4-4---------------|------------3-------1-----------| 
|--------------------------------|--------------------------------| 
 
 |       |       |       |        |       |       |       |         
|--------------------1-----------|--------------------------------| 
|----1-------1-------------------|------------3-------------------| 
|----------------------------1---|----1-----------1---3-------4---| 
|--------------------------------|--------------------------------| 
 
 |       |       |       |        |       |       |       |         
|--------------------------------|--------------------------------| 
|------------1-------1-----------|1-------------------------------| 
|----4-----------4---------------|--------------------------------| 
|--------------------------------|--------------------------------| 
 
 |       |       |       |        |       |       |       |         
|--------------------------------|--------------------------------| 
|--------------------------------|1-------------------------------| 
|--------------------------------|--------------------------------| 
|--------------------------------|--------------------------------| 
 
 |       |       |       |        |       |       |       |         
|--------------------------------|1-----------1---1-----------1---| 
|--------------------------------|--------------------------------| 
|--------------------------------|--------------------------------| 
|--------------------------------|--------------------------------| 
 
 |       |       |       |        |       |       |       |         
|1-----------1---1-----------1---|0-----------0---0-----------2---| 
|--------------------------------|--------------------------------| 
|--------------------------------|--------------------------------| 
|--------------------------------|--------------------------------| 
 
 |       |       |       |        |       |       |       |         
|0-----------0---0-----------0---|--------------------------------| 
|--------------------------------|--------------------------------| 
|--------------------------------|3-----------3---3-----------3---| 
|--------------------------------|--------------------------------| 
 
 |       |       |       |        |       |       |       |         
|----------------------------2---|1-----------1---1-----------1---| 
|--------------------------------|--------------------------------| 
|3-----------3---3---------------|--------------------------------| 
|--------------------------------|--------------------------------| 
 
 |       |       |       |        |       |       |       |         
|1-----------1---1-----------1---|--------------------------------| 
|--------------------------------|1-------1-------1---------------| 
|--------------------------------|------------------------3-------| 
|--------------------------------|--------------------------------| 
 
 |       |       |       |        |       |       |       |         
|1-----------1---1-----------1---|--------------------------------| 
|--------------------------------|1-----------1---1---------------| 
|--------------------------------|------------------------3-------| 
|--------------------------------|--------------------------------| 
 
 |       |       |       |        |       |       |       |         
|1-----------1---1-----------1---|1-----------1---1---1-------1---| 
|--------------------------------|--------------------------------| 
|--------------------------------|--------------------------------| 
|--------------------------------|--------------------------------| 
 
 |       |       |       |        |       |       |       |         
|1-----------1---1-----------1---|0-----------0---0-----------2---| 
|--------------------------------|--------------------------------| 
|--------------------------------|--------------------------------| 
|--------------------------------|--------------------------------| 
 
 |       |       |       |        |       |       |       |         
|0-----------0---0-----------0---|--------------------------------| 
|--------------------------------|--------------------------------| 
|--------------------------------|3-----------3---3---3-------3---| 
|--------------------------------|--------------------------------| 
 
 |       |       |       |        |       |       |       |         
|--------------------------------|1-----------1---1---1-------1---| 
|--------------------------------|--------------------------------| 
|3-----------3---3-----------3---|--------------------------------| 
|--------------------------------|--------------------------------| 
 
 |       |       |       |        |       |       |       |         
|1-----------1---1-----------1---|--------------------------------| 
|--------------------------------|1-----------1---1---------------| 
|--------------------------------|------------------------3-------| 
|--------------------------------|--------------------------------| 
 
 |       |       |       |        |       |       |       |         
|1-----------1---1-----------1---|--------------------------------| 
|--------------------------------|1-----------1---1---------------| 
|--------------------------------|------------------------3-------| 
|--------------------------------|--------------------------------| 
 
 |       |       |       |        |       |       |       |         
|1-----------1---1-----------3---|--------------------------------| 
|--------------------------------|2-----------2---2-----------2---| 
|--------------------------------|--------------------------------| 
|--------------------------------|--------------------------------| 
 
 |       |       |       |        |       |       |       |         
|--------------------------------|--------------------------------| 
|2-----------2---2-----------2---|2-----------2---2-----------2---| 
|--------------------------------|--------------------------------| 
|--------------------------------|--------------------------------| 
 
 |       |       |       |        |       |       |       |         
|--------------------------------|--------------------------------| 
|2-----------2---2-----------2---|2-----------2---2-----------2---| 
|--------------------------------|--------------------------------| 
|--------------------------------|--------------------------------| 
 
 |       |       |       |        |       |       |       |         
|--------------------------------|--------------------------------| 
|2-----------2---2-----------2---|2-----------2---2-----------2---| 
|--------------------------------|--------------------------------| 
|--------------------------------|--------------------------------| 
 
 |       |       |       |        |       |       |       |         
|--------------------------------|--------------------------------| 
|2-----------2---2-----------2---|2-----------2---2-----------2---| 
|--------------------------------|--------------------------------| 
|--------------------------------|--------------------------------| 
 
 |       |       |       |        |       |       |       |         
|--------------------------------|--------------------------------| 
|2-----------2---2-----------2---|0-----------0---0-----------0---| 
|--------------------------------|--------------------------------| 
|--------------------------------|--------------------------------| 
 
 |       |       |       |        |       |       |       |         
|--------------------------------|--------------------------------| 
|0-----------0---0-----------0---|2-----------2---2-----------2---| 
|--------------------------------|--------------------------------| 
|--------------------------------|--------------------------------| 
 
 |       |       |       |        |       |       |       |         
|--------------------------------|--------------------------------| 
|2-----------2---2-----------2---|2-----------2---2-----------2---| 
|--------------------------------|--------------------------------| 
|--------------------------------|--------------------------------| 
 
 |       |       |       |        |       |       |       |         
|--------------------------------|--------------------------------| 
|2-----------2---2-----------2---|2-----------2---2-----------2---| 
|--------------------------------|--------------------------------| 
|--------------------------------|--------------------------------| 
 
 |       |       |       |        |       |       |       |         
|--------------------------------|--------------------------------| 
|2-----------2---2-----------2---|2-----------2---2-----------2---| 
|--------------------------------|--------------------------------| 
|--------------------------------|--------------------------------| 
 
 |       |       |       |        |       |       |       |         
|--------------------------------|--------------------------------| 
|2-----------2---2-----------2---|--------------------------------| 
|--------------------------------|--------------------------------| 
|--------------------------------|--------------------------------| 
 
 |       |       |       |        |       |       |       |         
|--------------------------------|--------------------------------| 
|--------------------------------|--------------------------------| 
|--------------------------------|--------------------------------| 
|--------------------------------|--------------------------------| 
 
 |       |       |       |        |       |       |       |         
|--------------------------------|--------------------------------| 
|--------------------------------|--------------------------------| 
|--------------------------------|--------------------------------| 
|--------------------------------|--------------------------------| 
 
 |       |       |       |        |       |       |       |         
|--------------------------------|--------------------------------| 
|--------------------------------|--------------------------------| 
|--------------------------------|--------------------------------| 
|--------------------------------|--------------------------------| 
 
 |       |       |       |        |       |       |       |         
|--------------------------------|--------------------------------| 
|--------------------------------|--------------------------------| 
|--------------------------------|--------------------------------| 
|--------------------------------|--------------------------------| 
 
 |       |       |       |        |       |       |       |         
|--------------------------------|--------------------------------| 
|--------------------------------|--------------------------------| 
|--------------------------------|--------------------------------| 
|--------------------------------|--------------------------------| 
 
 |       |       |       |        |       |       |       |         
|--------------------------------|--------------------------------| 
|--------------------------------|--------------------------------| 
|--------------------------------|------------0---2---------------| 
|--------------------------------|4-----2-4---------------0-------| 
 
 |       |       |       |        |       |       |       |         
|--------------------------------|--------------------------------| 
|--------------------------------|--------------------------------| 
|3-----2-3---2---0-------0-------|------------0---2---------------| 
|----------------------4-------2-|4-----2-4---------------0-------| 
 
 |       |       |       |        |       |       |       |         
|--------------------------------|--------------------------------| 
|--------------------------------|--------------------------------| 
|3-----2-3---2---0-------0-------|------------0---2-----1-2-------| 
|----------------------4-------2-|4-----2-4-------------------0---| 
 
 |       |       |       |        |       |       |       |         
|--------------------------------|--------------------------------| 
|--------------------------------|--------------------------------| 
|3-----2-3---2---0-------0-------|------------0---2-----1-2-------| 
|----------------------4-------2-|4-----2-4-------------------0---| 
 
 |       |       |       |        |       |       |       |         
|--------------------------------|--------------------------------| 
|--------------------------------|2---------------2---------------| 
|3-----2-3---2---0-------0-------|------------2---------------2---| 
|----------------------4-------2-|--------------------------------| 
 
 |       |       |       |        |       |       |       |         
|--------------------------------|--------------------------------| 
|2---------------2---------------|2---2-----------2---2-----------| 
|------------2---------------2---|------------2---------------2---| 
|--------------------------------|--------------------------------| 
 
 |       |       |       |        |       |       |       |         
|--------------------------------|--------------------------------| 
|--------------------------------|2---2-------2---2---2-----------| 
|0---0-------0---0---0-------0---|--------------------------------| 
|--------------------------------|----------------------------0---| 
 
 |       |       |       |        |       |       |       |         
|--------------------------------|--------------------------------| 
|--------------------------------|2---2-----------2---2-----------| 
|0---0-----------0---0-------0---|------------2-------------------| 
|------------4-------------------|----------------------------4---| 
 
 |       |       |       |        |       |       |       |         
|--------------------------------|--------------------------------| 
|--------------------------------|2---2-----------2---2-----------| 
|0---0-------0---0---0-------0---|------------2---------------2---| 
|--------------------------------|--------------------------------| 
 
 |       |       |       |        |       |       |       |         
|--------------------------------|--------------------------------| 
|----------------------------1---|2-----------2---2---2-----------| 
|0---0-----------0---0-----------|--------------------------------| 
|------------4-------------------|--------------------------------| 
 
 |       |       |       |        |       |       |       |         
|--------------------------------|----9-----------------------9---| 
|2-----------2---2---2-------1---|--9-------9---9-----6-9---9-----| 
|------------------------4-------|7-----7-----7-----7-----7-----7-| 
|--------------------------------|--------------------------------| 
 
 |       |       |       |        |       |       |       |         
|----9-----------------------9---|--------------------9---------9-| 
|--9-------9---9-----6-9---9-----|--9---9-----6-9---9-------9-----| 
|7-----7-----7-----7-----7-----7-|----7-----7-----7-----7-----7---| 
|--------------------------------|--------------------------------| 
 
 |       |       |        |       |       |         
|------------------------|------------------------| 
|------------------------|------------------------| 
|------------------------|------------------------| 
|4-----------------------|4-----------------------| 
 
 |       |       |        |       |       |         
|------------------------|------------------------| 
|------------------------|------------------------| 
|------------------------|------------------------| 
|------------------------|------------------------| 
 
 |       |       |        |       |       |         
|------------------------|------------------------| 
|------------------------|------------------------| 
|------------------------|------------------------| 
|------------------------|------------------------| 
 
 |       |       |        |       |       |         
|------------------------|------------------------| 
|------------------------|--------------------1---| 
|------------------------|------------------------| 
|------------------------|--------------------4---| 
 
 |       |       |        |       |       |         
|------------------------|------------------------| 
|1-----------------------|------------------------| 
|1-----------------------|------------------------| 
|------------------------|------------------------| 
 
 |       |       |        |       |       |         
|------------------------|------------------------| 
|1-----------------------|------------------------| 
|1-----------------------|------------------------| 
|------------------------|------------------------| 
 
 |       |       |        |       |       |         
|------------------------|------------------------| 
|1-----------------------|------------------------| 
|------------------------|------------------------| 
|4-----------------------|------------------------| 
 
 |       |       |        |       |       |         
|------------------------|------------------------| 
|1-----------------------|------------------------| 
|------------------------|------------------------| 
|4-----------------------|------------------------| 
 
 |       |       |        |       |       |         
|------------------------|------------------------| 
|1-----------------------|------------------------| 
|1-----------------------|------------------------| 
|------------------------|------------------------| 
 
 |       |       |        |       |       |         
|------------------------|------------------------| 
|1-----------------------|------------------------| 
|1-----------------------|------------------------| 
|------------------------|------------------------| 
 
 |       |       |        |       |       |         
|------------------------|------------------------| 
|1-----------------------|------------------------| 
|------------------------|------------------------| 
|4-----------------------|------------------------| 
 
 |       |       |        |       |       |         
|------------------------|------------------------| 
|1-----------------------|------------------------| 
|------------------------|------------------------| 
|4-----------------------|------------------------| 
 
 |       |       |        |       |       |         
|------------------------|------------------------| 
|1-----------1-----------|1-----------1-----------| 
|------------------------|--------------------1---| 
|------------------------|----------------4-------| 
 
 |       |       |        |       |       |         
|------------------------|------------------------| 
|1-------1---1-----------|1---1-------1-----------| 
|--------------------1---|--------1-----------1---| 
|----------------4-------|----------------2-------| 
 
 |       |       |        |       |       |         
|------------------------|------------------------| 
|------------------------|------------------------| 
|2-------2---------------|2-----------2---2---1---| 
|----------------2-------|------------------------| 
 
 |       |       |        |       |       |         
|------------------------|------------------------| 
|--------------------1---|------------------------| 
|----------------4-------|--------------------1---| 
|4---4-4-4---4-----------|4---4-4-4---4-----------| 
 
 |       |       |        |       |       |         
|------------------------|------------------------| 
|1-----------1-----------|1---1-1-1---1-----------| 
|--------------------1---|--------------------1---| 
|----------------4-------|----------------4-------| 
 
 |       |       |        |       |       |         
|------------------------|------------------------| 
|1---1-1-1---1-----------|1---1---1---------------| 
|----------------------1-|------------4-----4-4---| 
|--------------------4---|------------------------| 
 
 |       |       |        |       |       |         
|------------------------|------------------------| 
|----------------1-------|------------------------| 
|2-------2---2-----------|2---2---2---2---2---1---| 
|--------------------4---|------------------------| 
 
 |       |       |        |       |       |         
|------------------------|------------------------| 
|------------------------|------------------------| 
|------------------------|------------------------| 
|4---4---4-------4---4---|4---4---4---4---4---4---| 
 
 |       |       |        |       |       |         
|------------------------|------------------------| 
|------------------------|------------------------| 
|------------------------|------------------------| 
|4---4-4-4---4---4-4-4---|4---4-4-4---4---4-4-4---| 
 
 |       |       |        |       |       |         
|------------------------|------------------------| 
|------------------------|------------------------| 
|------------------------|------------------------| 
|4-4-4-4-4-4-4-4-4-4-4-4-|4-4-4-4-4-4-4-4-4-4-4-4-| 
 
 |       |       |        |       |       |         
|------------------------|------------------------| 
|1-1-1-1-1-1-1-1-1-1-1-1-|1-1-1-1-1-1-1-1-1-1-1-1-| 
|------------------------|------------------------| 
|------------------------|------------------------| 
 
 |       |       |        |       |       |         
|------------------------|------------------------| 
|1-----------------------|------------------------| 
|------------------------|------------------------| 
|------------------------|------------------------| 

	  

Full key step upFull key step up
Half key step upHalf key step up
Half key step downHalf key step down
Full key step downFull key step down
Search Paypal
auto scroll beats size up size down change color hide chords drawings
tab show chords e-chords YouTube Clip e-chords hide all tabs e-chords go to top tab