The Jam

Thats Entertainment

The Jam

bass Expert expert

by  TOOTHY01

save to print version add songbook text version e-mail correct tuner
chordsukulelecavacokeyboardtabbassdrumsharmonicaflute Guitar Pro
close

there isn't a video lesson for this song

chords

Thats Entertainment

	  		The Jam - Thats Entertainment 
verse: 

g|-------------------------- 
d|-------------------------- 
a|-----------3-------------- 
e|-6-6-6-6-6----3-3-3-3-3-3- 

Chorus: (thats entertainment bit) 
g|-------------------------- 
d|-------------------------- 
a|-3-3-3-3-3-3--4----------- 
e|-----------------4-4-4-4-4- 

easy 
		  

auto scroll beats size up size down change color hide chords drawings
tab show chords e-chords YouTube Clip e-chords hide all tabs e-chords go to top tab

share