The Police

home > The Police

Cant Stand Loosing You Bass Tab

The Police

Difficulty: ExpertExpert

by pqnino2003

tuner correct add songbook print version text version save to e-mail
chordsukulelecavacokeyboardtabbassdrumsharmonicsflute Guitar Pro
chords

Cant Stand Loosing You

  		[email protected] 

Introdução 
g--------------------------------------------------------------- 
d------7-5--7-7--------7-5------------7-5--7-7--------7-5-5----- 
a--5-8-------------5-8-----7-5----5-8------------8-7--------7-5- 
e--------------------------------------------------------------- 

Verso 
g------------------------------------------------- 
d------------------------------------------------- 
a---5-5-------------1--------3-------3-3-5-5-5-5-- 
e----------3-3--------1-1------3-3---------------- 

Refrão 
g--------------------------------------------------------- 
d--------------------------------------------------------- 
a--------------------------------------------------------- 
e--5-6-6-6-5-6-6-6----2-3-3-3-2-3-3-3----4-5-5-5-4-5-5-5-- 

Solo 
g-------------------------------------------------0-0-------------0-0- 
d----------0--3-3----------------0--3-3------------------------2------ 
a---1-1-1----------1---1--1-1-1------------3-3-2--------3-3-3--------- 
e--------------------------------------------------------------------- 

g-------------------------------------------------0--2-2-2-2-2-2-2-2- 
d---------0---3-3-3--------------0---3--------2---------------------- 
a-1-1-1-1------------1---1-1-1-1--------3-3-3------------------------ 
e-------------------------------------------------------------------- 

Intervalo 
g------------------------------------------------- 
d------------------------------------------------- 
a-5-5-5-5-5-5-5-5-----1-------3-------3-3-5-5-5-5- 
e-----------------------1-1-----3-3--------------- 

Outro 
g------------------------------------- 
d--------7-5--7-7----------7-5-------- 
a---5-8--------------5-8--------7---5- 
e------------------------------------- 
	  

Search Paypal
auto scroll beats size up size down change color hide chords drawings
tab show chords e-chords YouTube Clip e-chords hide all tabs e-chords go to top tab