The Dead Milkmen

I Hate Myself

The Dead Milkmen

bass

by  PAULLET3

save to print version add songbook text version e-mail correct tuner
chordsukulelecavacokeyboardtabbassdrumsharmonicaflute Guitar Pro
close

there isn't a video lesson for this song

chords

I Hate Myself

	  		
Verse 
G|-----------------------------------------------------------| 
D|-----------------------------------------------------------| 
A|-----3-2-----3-2----------5----------3-5------5--3--2--0---| 
E|-3-------3-------3-----------------3-----------------------| 

Chorus 
G|-------------------------------------------| 
D|-------------------------------------------| 
A|----5-7----5----------5-7----5-------------| 
E|-5------------5----5------------5----------| 

G|-------------------------------------------| 
D|-------------------------------------------| 
A|----5-7----5----------5-7----5-------------| 
E|-5------------5----5------------5----------| 

G|------------------------------------------------------| 
D|------------------------------------------------------| 
A|-5------7------5------7------5------7------5------7---| 
E|------------------------------------------------------| 

Bridge 
G|------------------------------------------------------| 
D|------------------------------------------------------| 
A|------------------------------------------------------| 
E|-5------3------0------7------5------3------0------7---| 

G|--------------------------------------------------7---| 
D|------------------------------------------------------| 
A|---------------3------5--------------------3----------| 
E|-3------5---------------------3-----5-----------------| 
		  

See also:

bass Deep Purple - Space Truckin' bass Deep Purple - Burn Ver.(2) bass Deep Purple - Soldier Of Fortune bass Deep Purple - Burn (ver. 2) bass Deep Purple - Highway Star bass Deep Purple - Strange kind of woman
e-chords

Other versions:

bass The Dead Milkmen - I Hate Myself bass Nirvana - I Hate Myself And I Want To Die
auto scroll beats size up size down change color hide chords drawings
tab show chords e-chords YouTube Clip e-chords hide all tabs e-chords go to top tab

share