Slipknot

home > Slipknot

I am Hated Bass Tab

Slipknot

Difficulty: nolevelnolevel

by VELHO

tuner correct add songbook print version text version save to e-mail
chordsukulelecavacokeyboardtabbassdrumsharmonicsflute Guitar Pro
chords

I am Hated

  		tuning-4-string B,E,A,D / 5-string standard 



INTRO 

D|----------------------------------------------|   X1 
A|----------------------------------------------| 
E|----------0--1------------0--1------------0-1-| 
B|-3-2-0------------3-2-0-----------3-2-0-------| 
__________________________________________ 

VERSE 
not too sure about this bit 

D|-------------------------|  |-------------------------|  X8 
A|-------------------------|  |-------------------------| 
E|----- x11-12-------14-12-|   |-----x11-12--x----14-12-| 
B|-12------------12--------|   |-12------------12-------| 
__________________________________________ 

Chorus 

D|---------------------------| X8 
A|---------------------------| 
E|---------1-0----------1-0--| 
B|-3-2-0--------0--0-0-------| 
______________________________ 

VERSE X4 
_______________________________ 

Chorus X8 
_________________________________ 

break (quiet bit) 

D|----------------|  X4 
A|----------------| 
E|------------1---| 
B|-3-1-0^---3---0-| 
___________________________ 

D|----------------------------|   X10 
A|----------------------------| 
E|----------0--1----------0--1| 
B|-3-2-0----------3-2-0-------| 
______________________________ 

D|-----| 
A|-----| 
E|-----| 
B|-000-| 

___________________________ 

break back in 

D|--------| 
A|--------| 
E|-x--1---| 
B|--0--0 -|                                                           
______________________________ 

D|-------------------------------|   X9 
A|-------------------------------| 
E|----------1--0------------1--0-| 
B|-3-2-0-----------0--0-0--------| 

D|----------------------------------|  X1 
A|----------------------------------| 
E|----------1--0------------1--0----| 
B|-3-2-0----------0--0-0----------0-| 
	  

Full key step upFull key step up
Half key step upHalf key step up
Half key step downHalf key step down
Full key step downFull key step down
Search Paypal
auto scroll beats size up size down change color hide chords drawings
tab show chords e-chords YouTube Clip e-chords hide all tabs e-chords go to top tab