Dream Theater

Overture 1928

Dream Theater

bass Expert expert

save to print version add songbook text version e-mail correct tuner
chordsukulelecavacokeyboardtabbassdrumsharmonicaflute Guitar Pro
close

there isn't a video lesson for this song

chords

Overture 1928

	  		

c						

Overture 1928
Tabbed By:superpopetaboy
   

||-----------------------------------||------------|
||o---------------------------------o||------------|
||-----------------------------------||------------|
||-----------------------------------||------------|
||o---------------------------------o||------------|
||--3-3-3-3---3-3-3-3-3-3-3-3-3-3-3--||-3-3-3-3----|



|-----------------|-----------------|-----------------------|
|-----------------|-----------------|-----------------------|
|-----------------|-----------------|-----------------------|
|-----------------|-----------------|---------3h5-5-5-3h5-5-|
|-----------------|-----------------|-----------------------|
|-3-3-3-3-3-3-3-1-|-3-3-3-3-3-3-3-1-|-3-3-3-3---------------|


  
|-----------------------|-----------------|------------------|
|-----------------------|-----------------|------------------|
|-----------------------|-----------------|------------------|
|---------3h5-5-5-3h5-5-|-----------------|------------------|
|-----------------------|-----------------|------------------|
|-3-3-3-3---------------|-3-3-3-3-3-3-3-1-|-3-3-3-3-3-3-3-1--|


                          
|-----------------------|-8-9-8-6------------------------------------------|
|-----------------------|---------9-7-6-9-7-6------------------------------|
|-----------------------|---------------------9-7-6-9-7-6------------------|
|---------3h5-5-5-3h5-5-|---------------------------------9-7-5-9-7-5------|
|-----------------------|---------------------------------------------9-7--|
|-3-3-3-3---------------|--------------------------------------------------|

|----------------------|----------------------|----------------------|
|----------------------|----------------------|----------------------|
|--------7-(7)-------7-|----------------------|--------7-(7)---------|
|----------------------|----------------------|----------------------|
|-5--5-5-------5-5-5---|-7--7-7-7-7-(7)-7-7-7-|-5--5-5-------0-(0)-0-|
|----------------------|----------------------|----------------------|


  \
|----------------------|--------------------|----------------------|
|----------------------|--------------------|----------------------|
|--------4-(4)-4-2-4-4-|--------------------|----------------------|
|----------------------|--------------------|----------------------|
|-2--2-2---------------|-5--5-5-5-(5)-5-5-5-|-7--7-7-7-7-(7)-7-7-7-|
|----------------------|--------------------|----------------------|


                                            
|--------------------|-------------------||--------------------------|
|--------------------|-------------------||o-------------------------|
|--------------------|-------------------||--------------------------|
|-3--3-3-3-(3)-3-3-3-|-/5--5-5-5-5-5-5-5-||--------------------------|
|--------------------|-------------------||o-0-2-4-6-(6)\--0-0-0-0---|
|--------------------|-------------------||--------------------------|


                                        
  
|---------------------|---------------------------|
|---------------------|---------------------------|
|---------------------|---------------------------|
|-5-4-----------------|---------------------------|
|-----2-4-(4)-0-0-0-0-|-0-2-4-6-(6)\--0-0-0-0-0---|
|---------------------|---------------------------|


 
  
|------------------------------||
|-----------------------------o||
|-----4-6-(6)------------------||
|-5-7-----------------3-5-7----||
|-------------0-2-4-6---------o||
|------------------------------||


  
|------------------------------------|------------------------------------|
|------------------------------------|------------------------------------|
|-----4-6----------------------------|------------------------------------|
|-5-7-----7-5-----7---5---3-1---2----|------------------------------------|
|-------------6-4---6---4-----2---1--|-0-0-0-0---0-0-0-0-0-0-0-0-0-0-0----|
|------------------------------------|------------------------------------|


  
|-----------------|-----------------|------------------------|
|-----------------|-----------------|------------------------|
|-----------------|-----------------|------------------------|
|-----------------|-----------------|---------3h5-5-5-3h5-5--|
|-----------------|-----------------|------------------------|
|-3-3-3-3-3-3-3-1-|-3-3-3-3-3-3-3-1-|-3-3-3-3----------------|


  
|-----------------------|-----------------|------------------|
|-----------------------|-----------------|------------------|
|-----------------------|-----------------|------------------|
|---------3h5-5-5-3h5-5-|-----------------|------------------|
|-----------------------|-----------------|------------------|
|-3-3-3-3---------------|-3-3-3-3-3-3-3-1-|-3-3-3-3-3-3-3-1--|


                                             
|-----------------------|--------------------|--------------------|
|-----------------------|--------------------|--------------------|
|-----------------------|--------------------|--------------------|
|---------3h5-5-5-3h5-5-|--------------------|-2--2-2-------------|
|-----------------------|---------2--3-(3)-0-|---------3--3-3--2--|
|-3-3-3-3---------------|-3-3-3-3------------|--------------------|


  
|---------------|-------------------|---------------|
|---------------|-------------------|---------------|
|---------------|-------------------|---------------|
|---------5-----|-2--2-2------------|---------5-----|
|-0--0-0-----5--|---------3--3-3--2-|-0--0-0-----5--|
|---------------|-------------------|---------------|


  
|-------------------|---------------|-------------------|---------------------|
|-------------------|---------------|-------------------|---------------------|
|----4--2-------2-4-|-(4)-------2-4-|----4--2-------2-4-|-(4)-/8-6---6--------|
|---------4-2-0-----|-----2-2-4-----|---------4-2-0-----|----------9---9------|
|-2-----------------|---------------|-2-----------------|----------------0----|
|-------------------|---------------|-------------------|---------------------|


                     
|-------------------|---------------------------9-|----------------------|
|-------------------|----------------------9-11---|-11-------------------|
|----4--2-------2-4-|-(4)-9-11-8-8-9-10-11--------|--------2-4-----2-4---|
|---------4-2-0-----|-----------------------------|------------0-2-------|
|-2-----------------|-----------------------------|-----2----------------|
|-------------------|-----------------------------|----------------------|



|-----------------------|--------------------|-----------------------|
|-----------------------|--------------------|-----------------------|
|-(4)-2-4--7-9-9-9-7-9\-|--------------------|-----------------------|
|-----------------------|-0--0-0-0-(0)-0-0-0-|-2--2-2-2-(2)-2-2-2-2--|
|-----------------------|--------------------|-----------------------|
|-----------------------|--------------------|-----------------------|



|----------------------|--------------------------|-------------------------|
|----------------------|--------------------------|-------------------------|
|----------------------|--------------------------|-------------------------|
|-0--0-0-0-(0)---------|--------------------------|-0--0-0-0-0-(0)-0-0-0-0--|
|--------------0-(0)-0-|-2--2-2-2-2-(2)-2-2-2-2-2-|-------------------------|
|----------------------|--------------------------|-------------------------|



|------------------------|----------------------|----------------------|
|------------------------|----------------------|----------------------|
|------------------------|----------------------|----------------------|
|-2--2-2-2-2-(2)-2-2-2-2-|-3--3-3-3-(3)-3-3-3-3-|-5--5-5-5-(5)-5-5-5-5-|
|------------------------|----------------------|----------------------|
|------------------------|----------------------|----------------------|



|----------------------|--------------------|----------------------|
|----------------------|--------------------|----------------------|
|----------------------|--------------------|----------------------|
|-4--4-4-4-(4)-4-4-4-4-|-2--2-2-4-(4)-4-6\--|----------------------|
|----------------------|--------------------|-4--4-4-4-(4)-4-4-4---|
|----------------------|--------------------|----------------------|


  
|--------------------|----------------------|--------------------|
|--------------------|----------------------|--------------------|
|--------------------|----------------------|--------------------|
|-0--0-0-0-(0)-0-0-0-|-4--4-4-4-(4)-4-4-4-4-|-2--2-2-4-4-4-6\----|
|--------------------|----------------------|--------------------|
|--------------------|----------------------|--------------------|


  
|----------------------|--------------------|-----------------------|
|----------------------|--------------------|------------------4----|
|----------------------|--------------------|-----------------------|
|----------------------|-0--0-0-0-(0)-0-0-0-|-2--2-2-2-(2)-2-2---2--|
|-4--4-4-4-(4)-4-4-4-4-|--------------------|-----------------------|
|----------------------|--------------------|-----------------------|


  
|------------------|------------|------------------|----------------|
|------------------|------------|------------------|----------------|
|------------------|------------|------------------|----------------|
|-3--------5-(5)-0-|-(0)-----2--|-3--------5-(5)-0-|--(0)-----2-----|
|------------------|------------|------------------|-------------2--|
|------------------|------------|------------------|----------------|


 
  
|-------------------------|-----------------------------------------------|
|---------------4-2-------|-----------------------------------------------|
|-2---------2-5-----5-4-2-|-(2)-----------------------4-2-----------------|
|---5-3-2-3---------------|-----5-3-2-(2)---------2-5-----5-3-2---3-------|
|-------------------------|---------------5-3-2-3---------------5---2-0---|
|-------------------------|-----------------------------------------------|


 
|------------|---------------------------------|-------------------------------|
|------------|---------------------------------|-------------------------------|
|------------|---------------------------------|-------------------------------|
|------------|-7-----6-------5-4---3-2---1-0---|-------------3-3-2-2-1-0---0---|
|-(0)--/12\--|---7-0---7-0-------0-----0-----2-|-3-3-2-2-1-1-------------------|
|------------|---------------------------------|-------------------------------|


 
|---------------------------------|-------------------------------|
|---------------------------------|-------------------------------|
|---------------------------------|-------------------------------|
|-7-----6-------5-4---3-2---1-0---|-------------3-3-2-2-1-0---0---|
|---7-0---7-0-------0-----0-----2-|-3-3-2-2-1-1-------------------|
|---------------------------------|-------------------------------|


                               
|---------------------------||-------------------------------------||
|---------------------------||o-----------------------------------o||
|---------------------------||-------------------------------------||
|-------------3-3-2-2-1-0---||-------------------------------------||
|-3-3-2-2-1-1---------------||o-4-4-4-4-4-4-4-4-4-4-4-4-4-4-4-4---o||
|---------------------------||-------------------------------------||


      
|-----------------------------------------|
|-----------------------------------------|
|-----------------4h6-6-6-6-6-4h6-6-6-6-6-|
|-----------------------------------------|
|-4-4-4-4-4-4-4-4-------------------------|
|-----------------------------------------|


    
||-------------------------------------||
||o-----------------------------------o||
||-------------------------------------||
||-------------------------------------||
||o-1-1-1-1-1-1-1-1-1-1-1-1-1-1-1-1---o||
||-------------------------------------||



||-----------------------------------||-|
||o---------------------------------o||-|
||-----------------------------------||-|
||--2-2-2-2-2-2-2-2-2-2-2-2-2-2-2-2--||-|
||o---------------------------------o||-|
||-----------------------------------||-|


    
||-------------------------------------||
||o-----------------------------------o||
||-------------------------------------||
||--4-4-4-4-4-4-4-4-4-4-4-4-4-4-4-4----||
||o-----------------------------------o||
||-------------------------------------||


  
|-----------------------|-----------------------|
|-----------------------|-----------------------|
|-----------------------|-----------------------|
|-----------------------|-----------------------|
|-4-4-4-4----4-4-4-4----|-4-4-4------4-4-4-4----|
|-----------------------|-----------------------|

		  

See also:

bass Dream Theater - Eretomania bass Slipknot - People =Shit bass Alice Cooper - Schools Out For Summer bass Dream Theater - Overture 1928 (ver. 2) bass Seether - Pig bass Dream Theater - This Dying Soul
e-chords

Other versions:

bass Dream Theater - Overture 1928 bass Dream Theater - Overture 1928 (ver. 2)
auto scroll beats size up size down change color hide chords drawings
tab show chords e-chords YouTube Clip e-chords hide all tabs e-chords go to top tab

share