Skating Polly

Little Girl Blue And The Battle Envy

Skating Polly

bass

by  ALEFFEDERICO

save to print version add songbook text version e-mail correct tuner
chordsukulelecavacokeyboardtabbassdrumsharmonicaflute Guitar Pro
close

there isn't a video lesson for this song

chords

Little Girl Blue And The Battle Envy

	  		verse 1 

G|------------------------------|------------------------------|| 
D|--------------------------6/7-|--------------------------7-6-|| 
A|------------------------------|------------------------------|| 
E|-0--0-0-0--0--0-0--0--0-0-----|-0--0-0-0--0--0-0--0--0-0-----|| 
                                                                | (x3) 
G|------------------------------|------------------------------|| 
D|--------------------------6/7-|-------------------7--6-------|| 
A|------------------------------|------------------------------|| 
E|-0--0-0-0--0--0-0--0--0-0-----|-0--0-0-0--0--0-0-------------|| 


verse 2 

G|------------------------------|------------------------------| 
D|--------------------------6/7-|--------------------------7-6-| 
A|------------------------------|------------------------------| (x2) 
E|-0--0-0-0--0--0-0--0--0-0-----|-0--0-0-0--0--0-0--0--0-0-----| 

G|------------------------------|------------------------| 
D|--------------------------6/7-|-------------------7--6-| 
A|------------------------------|------------------------| 
E|-0--0-0-0--0--0-0--0--0-0-----|-0--0-0-0--0--0-0-------| 


verse 3 

G|------------------------------|------------------------------| 
D|--------------------------6/7-|--------------------------7-6-| 
A|------------------------------|------------------------------| 
E|-0--0-0-0--0--0-0--0--0-0-----|-0--0-0-0--0--0-0--0--0-0-----| 


G|------------------------------|------------------------| 
D|--------------------------6/7-|-------------------7--6-| 
A|------------------------------|------------------------| 
E|-0--0-0-0--0--0-0--0--0-0-----|-0--0-0-0--0--0-0-------| 

G|------------------------------|------------------------------| 
D|--------------------------6/7-|--------------------------7-6-| 
A|------------------------------|------------------------------| (x2) 
E|-0--0-0-0--0--0-0--0--0-0-----|-0--0-0-0--0--0-0--0--0-0-----| 

G|------------------------------|------------------------| 
D|--------------------------6/7-|-------------------7--6-| 
A|------------------------------|------------------------| 
E|-0--0-0-0--0--0-0--0--0-0-----|-0--0-0-0--0--0-0-------| 

G|------------------------------|------------------------------| 
D|--------------------------6/7-|--------------------------7-6-| 
A|------------------------------|------------------------------| 
E|-0--0-0-0--0--0-0--0--0-0-----|-0--0-0-0--0--0-0--0--0-0-----| 

G|------------------------------|------------------------| 
D|--------------------------6/7-|-------------------7--6-| 
A|------------------------------|------------------------| 
E|-0--0-0-0--0--0-0--0--0-0-----|-0--0-0-0--0--0-0-------| 


Break 1 

G|-------------------------|-------------------------| 
D|-------------------------|-------------------------| 
A|-------------------------|---------------7-6-7-6\2-| 
E|-0--0-0-0--0-0-0-0-0-0-0-|-0-0-0--0-0-0--0-0-0-0-0-| 

G|-------------------------|--------------------| 
D|-------------------------|---------------7--6-| 
A|-------------------------|---------------7--6-| 
E|-0--0-0-0--0-0-0-0-0-0-0-|-0-0-0--0-0-0-------| 


verse 4 

G|------------------------------|------------------------------|| 
D|--------------------------6/7-|--------------------------7-6-|| 
A|------------------------------|------------------------------|| 
E|-0--0-0-0--0--0-0--0--0-0-----|-0--0-0-0--0--0-0--0--0-0-----|| 
                                                                | (x3) 
G|------------------------------|------------------------------|| 
D|--------------------------6/7-|-------------------7--6-------|| 
A|------------------------------|------------------------------|| 
E|-0--0-0-0--0--0-0--0--0-0-----|-0--0-0-0--0--0-0-------------|| 


Chorus 1 

G|------------------------------|------------------------------|| 
D|-------------------------/6/7-|--------------------------7-6-|| 
A|------------------------------|------------------------------|| 
E|-0--0-0-0--0--0-0--0--0-0-----|-0--0-0-0--0--0-0--0--0-0-----|| 
                                                                | (x2) 
G|------------------------------|------------------------------|| 
D|-------------------------/6/7-|-------------------7--6-------|| 
A|------------------------------|------------------------------|| 
E|-0--0-0-0--0--0-0--0--0-0-----|-0--0-0-0--0--0-0-------------|| 


Break 2 

G|-------------------------|-------------------------| 
D|-------------------------|-------------------------| 
A|-------------------------|---------------7-6-7-6\2-| 
E|-0--0-0-0--0-0-0-0-0-0-0-|-0-0-0--0-0-0--0-0-0-0-0-| 

G|-------------------------|--------------------| 
D|-------------------------|---------------7--6-| 
A|-------------------------|---------------7--6-| 
E|-0--0-0-0--0-0-0-0-0-0-0-|-0-0-0--0-0-0-------| 


Bridge 1  

G|------------------------------|------------------------------|| 
D|--------------------------6/7-|--------------------------7-6-|| 
A|------------------------------|------------------------------|| 
E|-0--0-0-0--0--0-0--0--0-0-----|-0--0-0-0--0--0-0--0--0-0-----|| 
                                                                | (x2) 
G|------------------------------|------------------------------|| 
D|--------------------------6/7-|-------------------7--6-------|| 
A|------------------------------|------------------------------|| 
E|-0--0-0-0--0--0-0--0--0-0-----|-0--0-0-0--0--0-0-------------|| 


Chorus 2 

G|------------------------------|------------------------------|| 
D|-------------------------/6/7-|--------------------------7-6-|| 
A|------------------------------|------------------------------|| 
E|-0--0-0-0--0--0-0--0--0-0-----|-0--0-0-0--0--0-0--0--0-0-----|| 
                                                                | (x2) 
G|------------------------------|------------------------------|| 
D|-------------------------/6/7-|-------------------7--6-------|| 
A|------------------------------|------------------------------|| 
E|-0--0-0-0--0--0-0--0--0-0-----|-0--0-0-0--0--0-0-------------|| 


Bridge 2 

G|-------------------------|-------------------------| 
D|-------------------------|-------------------------| 
A|-------------------------|---------------7-6-7-6\2-| (x4) 
E|-0--0-0-0--0-0-0-0-0-0-0-|-0-0-0--0-0-0--0-0-0-0-0-| 

G|-------------------------|--------------------| 
D|-------------------------|---------------7--6-| 
A|-------------------------|---------------7--6-| 
E|-0--0-0-0--0-0-0-0-0-0-0-|-0-0-0--0-0-0-------| 


Chorus 3 

G|------------------------------|------------------------------|| 
D|-------------------------/6/7-|--------------------------7-6-|| 
A|------------------------------|------------------------------|| 
E|-0--0-0-0--0--0-0--0--0-0-----|-0--0-0-0--0--0-0--0--0-0-----|| 
                                                                | (x4) 
G|------------------------------|------------------------------|| 
D|-------------------------/6/7-|-------------------7--6-------|| 
A|------------------------------|------------------------------|| 
E|-0--0-0-0--0--0-0--0--0-0-----|-0--0-0-0--0--0-0-------------|| 


Outro 

G|------------------------------|------------------------------|| 
D|--------------------------6/7-|--------------------------7-6-|| 
A|------------------------------|------------------------------|| 
E|-0--0-0-0--0--0-0--0--0-0-----|-0--0-0-0--0--0-0--0--0-0-----|| 
                                                                | (x2) 
G|------------------------------|------------------------------|| 
D|--------------------------6/7-|-------------------7--6-------|| 
A|------------------------------|------------------------------|| 
E|-0--0-0-0--0--0-0--0--0-0-----|-0--0-0-0--0--0-0-------------|| 


G|-------------------------|-------------------------| 
D|-------------------------|-------------------------| 
A|-------------------------|---------------7-6-7-6\2-| 
E|-0--0-0-0--0-0-0-0-0-0-0-|-0-0-0--0-0-0--0-0-0-0-0-| 


G|---------------------------------|-----------------| 
D|---------------------------------|---------------2-| 
A|-6h7--------6h7--------6h7-------|---------------2-| 
E|-0---0-0-0--0---0-0-0--0---0-0-0-|-0-0-0--0-0-0--0-| 




************************************ 

| h   Hammer on 
| /   Slide up 
| \   Slide down 

************************************ 
		  

See also:

bass Deep Purple - Space Truckin' bass Deep Purple - Burn Ver.(2) bass Deep Purple - Soldier Of Fortune bass Deep Purple - Burn (ver. 2) bass Deep Purple - Highway Star bass Deep Purple - Strange kind of woman
e-chords

Other versions:

bass Skating Polly - Little Girl Blue And The Battle Envy
auto scroll beats size up size down change color hide chords drawings
tab show chords e-chords YouTube Clip e-chords hide all tabs e-chords go to top tab

share