Red Hot Chili Peppers

home > Red Hot Chili Pepp...

soul to squeeze. Bass Tab

Red Hot Chili Peppers

Difficulty: ExpertExpert

by abada2

tuner correct add songbook print version text version save to e-mail
chordsukulelecavacokeyboardtabbassdrumsharmonicsflute Guitar Pro
chords

soul to squeeze.

  		 
 
 
E-1-1-1-1--------------------------------1-1-1-1-1-------------- 
A---------3-3-3-3-------1-1-1----------------------3-3-3--1-1-1- 
D----------------0-0-0----------0-0-0-0------------------------- 
G--------------------------------------------------------------- 
 
 
  I got a bad disease 
 Up from my brain is where I bleed 
 Insanity it seems 
 Has got me by my soul to squeeze 
 
 
 Well all the love from me 
 With all the dying trees I scream 
 The angels in my dreams, yea 
 Have turned to demons of greed that's me 
 
 
Refrão: 
 
 
E-1-1-1-1-1-1-1-1------------------------------------------ 
A-----------------3-3-3-3-3-3-3---------------1-1-1-1-1-1-1 
D-------------------------------0-0-0-0-0-0-0-------------- 
G---------------------------------------------------------- 
 
 
 Where I go I just don't know 
 I got to -got to - gotta take it slow 
 When I find my peace of mind 
 I'm gonna give you some of my good time 
 
 
 

	  

Search Paypal
auto scroll beats size up size down change color hide chords drawings
tab show chords e-chords YouTube Clip e-chords hide all tabs e-chords go to top tab