Ramones

home > Ramones

Bye Bye Baby Bass Tab

Ramones

Difficulty: nolevelnolevel

by Cinho+Punk+182

tuner correct add songbook print version text version save to e-mail
chordsukulelecavacokeyboardtabbassdrumsharmonicsflute Guitar Pro
chords

Bye Bye Baby

  		INTRODUÇÃO: 
 
G ---------------------------------------------------------------------------------------- 
D ---------------------------------------------------------------------------------------- 
A 7---7-7---7---7-7-------------------------------------------------------------------- 
E ---------------------------------------------------------------------------------------- 
 
 
 
G ---------------------------------------------------------------------------------------- 
D ---------------------------------------------------------------------------------------- 
A 7---7-7---7---7-7-------------------------------------------------------------------- 
E ----------------------9---9-9---9---9-9---5---5-5---5---5-5---7---7-7---7---7-7 
(REPETE ATÉ O TÉRMINO DO SOLINHO) 
 
 
PARTE NO FINAL DO SOLINHO (OHHH OHHH OH OH,BYE BYE BABY) 
 
G ------------------------------------- 
D ------------------------------------- 
A 9-9-9-9-9-9-9-7-5-5-5-5-5-5-5 
E ------------------------------------- 
 
DEPOIS FICA ASSIM 
 
G ----------------------------------------------------------------------------------------- 
D ----------------------------------------------------------------------------------------- 
A 7---7-7---7---7-7--------------------------------------------------------------------- 
E ----------------------9--11--12--14-12---5---5-5---5---5-5---7---7-7---7---7-7 
 
 
 
By: [email protected] 

	  

Search Paypal
auto scroll beats size up size down change color hide chords drawings
tab show chords e-chords YouTube Clip e-chords hide all tabs e-chords go to top tab