Paul McCartney

home > Paul McCartney

I Want To Come Home Bass Tab

Paul McCartney

Difficulty: nolevelnolevel

by robepoiel

tuner correct add songbook print version text version save to e-mail
chordsukulelecavacokeyboardtabbassdrumsharmonicsflute Guitar Pro
chords

I Want To Come Home

  		
Verse 							00:56 
G|---------------------------------|----------------------------7----| 
D|---------------------------------|------------------------9--------| 
A|---------------------------------|---------------------------------| 
E|---------------------------------|---------------------------------| 

G|9-----------\---7-----------\----|5--------------------------------| 
D|---------------------------------|---------------------------------| 
A|---------------------------------|---------------------------------| 
E|---------------------------------|---------------------------------| 

G|---------------------------------|---------------------------------| 
D|---------------------------------|5--------------------------------| 
A|3--------------------------------|---------------------------------| 
E|---------------------------------|----------------3-------2--------| 

Chorus 
G|---------------------------------|---------------------------------| 
D|---------------------------------|---------------------------------| 
A|---------------------------------|2-----------/---7----------------| 
E|0---------------2----------------|---------------------------------| 

G|---------------------------------|---------------------------------| 
D|7--------------------------------|---------------------------------| 
A|----------------7----------------|8-----------/---10-\8/--10---\---| 
E|---------------------------------|---------------------------------| 

G|---------------------------------|---------------------------------| 
D|---------------------------------|---------------------------------| 
A|3--------------------------------|----------------7----------------| 
E|-------------/--2----------------|7-----------7--------------------| 

G|---------------------------------|------------7--------------------| 
D|7-------7------------------------|------/-7-------5-------5---\----| 
A|----------------7-------7------/-|5--------------------------------| 
E|---------------------------------|---------------------------------| 

Interlude 
G|---------------------------------| 
D|----------------5----------------| 
A|------/-5------------------------| 
E|3--------------------------------| 

Verse 
G|---------------|---------------------------------| 
D|---------------|---------------------------------| 
A|3-------2------|0-----------0---0----------------| 
E|---------------|---------------------------------| 

G|---------------------------------|---------------------------------| 
D|---------------------------------|---------------------------------| 
A|---------------------------------|3-----------2---0----------------| 
E|3-------3-------3-------3--------|---------------------------------| 

G|---------------------------------|---------------------------------| 
D|---------------------------------|---------------------------------| 
A|2---------------2-------2---2-/--|7-------7-------7-------7--------| 
E|---------------------------------|---------------------------------| 

G|---------------------------------|---------------------------------| 
D|---------------------------------|---------------------------------| 
A|7-------7-----/-7-----/-5--------|3-----------3---3-------3--------| 
E|---------------------------------|---------------------------------| 

G|---------------------------------| 
D|---------------------------------| 
A|---------------------------------| 
E|3-----------3---3-------2--------| 
Solo 
G|---------------------------------|---------------------------------| 
D|---------------------------------|---------------------------------| 
A|---------------------------------|------------5---7----------------| 
E|0-----------0---2-------2---/----|7--------------------------------| 

G|---------------------------------|---------------------------------| 
D|7-----------5--------------------|3-----------3---5----------------| 
A|----------------7----------------|---------------------------------| 
E|---------------------------------|------------------------3--------| 

G|---------------------------------|---------------------------------| 
D|---------------------------------|---------------------------------| 
A|3-------3------------------------|2-----------/---7-----------7----| 
E|----------------2----------------|---------------------------------| 

G|---------------------------------|---------------------------------| 
D|7--------------------------------|---------/--7--------------------| 
A|----------------7-----------\4/--|5--------------------------------| 
E|---------------------------------|----------------3-----------3----| 

G|---------------------------------|---------------------------------| 
D|---------------------------------|---------------------------------| 
A|---------------------------------|---------------------------------| 
E|3-----------3---3-----------3----|3---3---3---3---3----------------| 

G|---------------------------------| 
D|---------------------------------| 
A|---------------------------------| 
E|3---------------3----------------| 

Verse 
G|---------------|---------------------------------| 
D|---------------|---------------------------------| 
A|X-------X------|0-----------0---0-------0--------| 
E|---------------|---------------------------------| 

G|---------------------------------|---------------------------------| 
D|---------------------------------|---------------------------------| 
A|---------------------------------|3-----------2---0-----------0----| 
E|3-------3-------3-------3--------|---------------------------------| 

G|---------------------------------|---------------------------------| 
D|---------------------------------|---------------------------------| 
A|2---------------2-------2-----/--|7-----------7---5-------5--------| 
E|---------------------------------|---------------------------------| 

G|---------------------------------|---------------------------------| 
D|---------------------------------|---------------------------------| 
A|3-----------3---3-------3--\-----|3---------------3-------3--------| 
E|---------------------------------|------------3--------------------| 

G|---------------------------------|---------------------------------| 
D|---------------------------------|---------------------------------| 
A|------------------------2---2----|3-----------3---3-------3--------| 
E|3-----------3---3----------------|---------------------------------| 

G|---------------------------------|---------------------------------| 
D|---------------------------------|---------------------------------| 
A|----------------2----/--5--------|3-----------3---3-------3--------| 
E|3-----------3--------------------|---------------------------------| 

G|---------------------------------| 
D|---------------------------------| 
A|3-----------3---3-----/-10-------| 
E|---------------------------------| 

Outro 
G|---------------------------------|---------------------------------| 
D|---------------------------------|---------------------------------| 
A|---------------------------------|---------------------------------| 
E|3---------------3---3---3---3----|3---3---3---3---3-------3--------| 

G|---------------------------------|---------------------------------| 
D|---------------------------------|---------------------------------| 
A|---------------------------------|---------------------------------| 
E|3--------------------------------|---------------------------------| 

************************************ 

| /  slide up 
| \  slide down 
| X  Mute note 

************************************ 
	  

Search Paypal
auto scroll beats size up size down change color hide chords drawings
tab show chords e-chords YouTube Clip e-chords hide all tabs e-chords go to top tab