Novos Baianos

Um Bilhete Pra Didi

Novos Baianos

bass

by  PAULANTUNES

save to print version add songbook text version e-mail correct tuner
chordsukulelecavacokeyboardtabbassdrumsharmonicaflute Guitar Pro
close

there isn't a video lesson for this song

chords

Um Bilhete Pra Didi

	  		Intro 
Rest 

verse 1 
Bass comes in at 00:13 
G|----------------------------------------------------------------------------------| 
D|--------------------------1---4------1---4------1---4------1---4------------------| 
A|---------2---------2--2----------2----------2----------2------------------2-------| x2 
E|-0---4------0---4-------------------------------------------------0---4------0----| 

verse 2 
At 00:33 
G|---------------------------------------------| 
D|---------------------------------------------| 
A|---------2----------2--5---4---2----------2--| 
E|-0---4------0---4-----------------0---4------| 

G|---------------------------------------------| 
D|---------------------------------------------| 
A|---------2----------2--5---4---2-------------| 
E|-0---4------0---4-----------------0---0------| 

G|---------------------------------------------| 
D|---------------------------------------------| 
A|---------2----------2--5---4---2----------2--| 
E|-0---4------0---4-----------------0---4------| 

G|---------------------------------------------| 
D|---------------------------------------------| 
A|---------2----------2--5---4---2-------------| 
E|-0---4------0---4-----------------0--0--2--4-| 

verse 3 
At 00:47 
G|---------------------------------------------| 
D|---------2---------------------2-------------| 
A|-0---4--------------2--0---4-----------------| 
E|------------0---4-----------------0---0------| 

G|---------------------------------------------| 
D|---------2---------------------2-------------| 
A|-0---4--------------2--0---4-----------------| 
E|------------0---4-----------------0---0------| 

G|---------------------------------------------| 
D|---------2---------------------2-------------| 
A|-0---4--------------2--0---4-----------------| 
E|------------0---4-----------------0---0-2--4-| 

G|---------------------------------------------| 
D|---------2---------------------2-------------| 
A|-0---4--------------2--0---4-----------------| 
E|------------0---4-----------------0---0------| 


verse 4 
At 01:01 
G|--------------------------------------| 
D|--------------------------------------| 
A|--------------------------------------| 
E|-0---0-----0---0-----0---0-----0---0--| 

G|-----------------------------------| 
D|-----------------------------------| 
A|-----------------------------------| 
E|-0---0-----0---0-----0---0-----0-0-| 

Rest 

Verse 5 
1:21 
G|----------------------------------------------------------------------------------| 
D|--------------------------1---4------1---4------1---4------1---4------------------| 
A|---------2---------2--2----------2----------2----------2------------------2-------| x2 
E|-0---4------0---4-------------------------------------------------0---4------0----| 

verse 2 
1:41 
G|---------------------------------------------| 
D|---------------------------------------------| 
A|---------2----------2--5---4---2----------2--| 
E|-0---4------0---4-----------------0---4------| 

G|---------------------------------------------| 
D|---------------------------------------------| 
A|---------2----------2--5---4---2-------------| 
E|-0---4------0---4-----------------0---0------| 

G|---------------------------------------------| 
D|---------------------------------------------| 
A|---------2----------2--5---4---2----------2--| 
E|-0---4------0---4-----------------0---4------| 

G|---------------------------------------------| 
D|---------------------------------------------| 
A|---------2----------2--5---4---2-------------| 
E|-0---4------0---4-----------------0--0--2--4-| 

Verse 6 
1:54 
G|---------------------------------------------| 
D|---------2---------------------2-------------| 
A|-0---4--------------2--0---4-----------------| 
E|------------0---4-----------------0---0------| 

G|---------------------------------------------| 
D|---------2---------------------2-------------| 
A|-0---4--------------2--0---4-----------------| 
E|------------0---4-----------------0---0------| 

G|---------------------------------------------| 
D|---------2---------------------2-------------| 
A|-0---4--------------2--0---4-----------------| 
E|------------0---4-----------------0---0-2--4-| 

G|---------------------------------------------| 
D|---------2---------------------2-------------| 
A|-0---4--------------2--0---4-----------------| 
E|------------0---4-----------------0---0------| 

Verse 7 
2:07 
G|--------------------------------------| 
D|--------------------------------------| 
A|--------------------------------------| 
E|-0---0-----0---0-----0---0-----0---0--| 

G|-----------------------------------| 
D|-----------------------------------| 
A|-----------------------------------| 
E|-0---0-----0---0-----0---0-----0-0-| 

Verse 8 
2:21 
G|----------------------------------------------------------------------------------| 
D|--------------------------1---4------1---4------1---4------1---4------------------| 
A|---------2---------2--2----------2----------2----------2------------------2-------| x5 
E|-0---4------0---4-------------------------------------------------0---4------0----| 

Outro 
02:46 
G|-------------------| 
D|-2-4-2-4-2--2------| 
A|-------------------| 
E|-------------------| 
		  

See also:

bass Fernando Mendes - A Desconhecida bass Carmen Silva - Brilha jesus bass Ana Carolina & Seu Jorge - Chatterton bass Ana Carolina & Seu Jorge - Tanta Saudade bass Zeca Baleiro - Lenha bass Tim Maia - Imunização Racional (Que Beleza)
e-chords

Other versions:

bass Novos Baianos - Um Bilhete Pra Didi
auto scroll beats size up size down change color hide chords drawings
tab show chords e-chords YouTube Clip e-chords hide all tabs e-chords go to top tab

share