Tim Maia

home > Tim Maia

Imunização Racional (Que Beleza) Bass Tab

Tim Maia

Difficulty: nolevelnolevel

by Teusalves

tuner correct add songbook print version text version save to e-mail
chordsukulelecavacokeyboardtabbassdrumsharmonicsflute Guitar Pro
chords

Imunização Racional (Que Beleza)

  		Intro 

|----------------------------------------------------------------| 
|------------------------3---5-----3---3-------------------------| 
|-5----3---5-----3---5-5---5-----5---5---------------------------| 
|----5---5-----5---5---------------------------------------------| 


|----------------------------------------------------------------| 
|-----------------------------3---5-----3---5--------------------| 
|---3---5----3---5----3---5-5---5-----5---5----------------------| 
|-5---5----5---5----5---5----------------------------------------| 


|----------------------------------------------------------------| 
|-------------------3---5----------------------------3---5-------| 
|---3---5---------5---5-------------3---5----------5---5---------| 
|-5---5---------------------------5---5--------------------------| 


Estrofe e Refrão 


|----------------------------------------------------------------| 
|-----------------------------3---5-----3---5--------------------| 
|---3---5----3---5----3---5-5---5-----5---5----------------------| 
|-5---5----5---5----5---5----------------------------------------| 


|----------------------------------------------------------------| 
|-----------------------------3---5-----3---5--------------------| 
|---3---5----3---5----3---5-5---5-----5---5----------------------| 
|-5---5----5---5----5---5----------------------------------------| 



|----------------------------------------------------------------| 
|-------------------3---5----------------------------3---5-------| 
|---3---5---------5---5-------------3---5----------5---5---------| 
|-5---5---------------------------5---5--------------------------| 
	  

Search Paypal
auto scroll beats size up size down change color hide chords drawings
tab show chords e-chords YouTube Clip e-chords hide all tabs e-chords go to top tab