Nasty Savage

Psychopath

Nasty Savage

bass

by  EDSOOLIVEIRA

save to print version add songbook text version e-mail correct tuner
chordsukulelecavacokeyboardtabbassdrumsharmonicaflute Guitar Pro
close

there isn't a video lesson for this song

chords

Psychopath

	  		Intro riff (guitar one) 
------------------------------------------------------------------- 
--2h3-3s5-5s3----2h3-3p2-2----2h3-3p0-0h2----2h3-3p2-2------------- 
------------------------------------------------------------------- 
------------------------------------------------------------------- 

Ending (guitar one) 
----------------------------------------- 
--2h3-3s7-7s6---------------------------- 
----------------------------------------- 
----------------------------------------- 

Intro riff (guitar two) 
------------------------------------------------------------------- 
--6h7-7s9-9s7----6h7-7p6-6----6h7-7s4-4s6----6h7-7p6-6------------- 
------------------------------------------------------------------- 
------------------------------------------------------------------- 

Ending (guitar two) 
----------------------------------------- 
--6h7-7s12-12s11------------------------- 
----------------------------------------- 
----------------------------------------- 

Main riff 
------------------------------------------------- 
-------------------0----------------------------- 
-----------------1---3-1-3-1-0-1----------------- 
-0-1-3-0-1-3-1-0--------------------------------- 

Rhythm Figure 1A 
---------------------------------------------------------------- 
-----9-----9-------0--------------------------------0-------------- 
-----7-----7-----1---3-1-3-1-0-1------------------1---3-1-3-1-0-1-- 
-0-0---0-0---0-0-----------------0-0-0-0-0-0-0-0------------------ 

Rhythm Figure 1B 
---------------------------------------------------------------- 
-----9-----9-------0--------------------------------0-------------- 
-----7-----7-----1---3-1-3-1-0-1------------------1---3-1-3-------- 
-0-0---0-0---0-0-----------------0-0-0-0-0-0-0-0------------------ 

Rhythm Figure 2 
-----------------------------------------------------------2h5p2*- 
------7-----7--------------------------7-----7-------------------- 
------7-----7-----6-6-5-3-5-3-013------7-----7-----6-6-5-3-------- 
--5-5---5-5---5-5------------------5-5---5-5---5-5---------------- 

Riff 1 
---------------------------------------------------- 
------2h3p2-----3h5p3-----2h3p2---5-3--------------- 
----------------------------------3-1--------------- 
-0-0--------0-0-------0-0-------0------------------- 


Rhythm Figure 3A (under solo) 
------------------------------ 
---9-------------------------- 
---7---1-0-------------------- 
-0---0-----3------------------ 


Rhythm figure 3B (under solo) 
------------------------------ 
---7-------------------------- 
---7---6-5-3------------------ 
-5---5------------------------ 

Post-solo riff 
----------------------------------------- 
--2-3-5-2-3-5-7-3-5-7-8-5-7-8-10--------- 
----------------------------------------- 
----------------------------------------- 

Rhythm figure 4 
------------------------------------------------------------------------ 
--------9-------10-------12-------10-------9-------10-------12-------14- 
--------7--------8-------10--------8-------7--------8-------10-------12- 
--0-0-0---0-0-0----0-0-0----0-0-0----0-0-0---0-0-0----0-0-0----0-0-0---- 

* 
		  

See also:

bass Metallica - Of Wolf and Man bass Metallica - For Whom The Bell Tolls bass Metallica - Mama Said bass Metallica - Unforgivem II bass Metallica - Master Of Puppets bass Metallica - Disposable Heroes
e-chords

Other versions:

bass Nasty Savage - Psychopath
auto scroll beats size up size down change color hide chords drawings
tab show chords e-chords YouTube Clip e-chords hide all tabs e-chords go to top tab

share