My Chemical Romance

home > My Chemical Romanc...

Skylines And. Bass Tab

My Chemical Romance

Difficulty: nolevelnolevel

by gustsilva

tuner correct add songbook print version text version save to e-mail
chordsukulelecavacokeyboardtabbassdrumsharmonicsflute Guitar Pro
chords

Skylines And.

  		(intro 4x) 
G|-----------------|-------| 
D|-----------------|-------| 
A|5----------------|--10---| 
E|--0---3---3--3333|-------| 

(5x)	 
G|-----------------------------------------------------------------------| 
D|-----------------------55-44-22-44-------------------------77-55-77-55-| 
A|55-5555-44-4444-22-2222------------77-7777-66-6666-55-5555-------------| 
E|-----------------------------------------------------------------------| 

(refrão 2x) 
G|--------------------------------| 
D|--------------------------------| 
A|-55-544-422-2--------55-5-------| 
E|-------------22-233-3----33-355-| 

G|------------------------------------------------| 
D|-------------------------------5555444422224444-| 
A|-5555-5555-4444-4444-2222-2222------------------| 
E|------------------------------------------------| 

G|------------------------------------------------| 
D|-------------------------------7777555577775555-| 
A|-7777-7777-6666-6666-5555-5555------------------| 
E|------------------------------------------------| 

(ponte) 
G|----------------------| 
D|----------------------| 
A|----------------------| 
E|-7-7777-7777-7777-5~--| 
			 
(solo) 
|-----------| 
|-----------| 
|-5555-5555-| 
|-----------| 

G|-----------------------------------------| 
D|--------------------------5555-----------| 
A|-5555-4444-2222-4444-5555------2222-4444-| 
E|-----------------------------------------| 

G|--------------------------------------|-------| 
D|--------------------------------------|-------| 
A|-555544442222444455557777999910101010-|-5~---5| 
E|--------------------------------------|-------| 
	  

Search Paypal
auto scroll beats size up size down change color hide chords drawings
tab show chords e-chords YouTube Clip e-chords hide all tabs e-chords go to top tab