My Chemical Romance

home > My Chemical Romanc...

Im not okay(Promise) Bass Tab

My Chemical Romance

Difficulty: nolevelnolevel

by Stump

tuner correct add songbook print version text version save to e-mail
chordsukulelecavacokeyboardtabbassdrumsharmonicsflute Guitar Pro
chords

Im not okay(Promise)

  		         My ChEmIcAl RoMaNcE-Im NoT OkaY(PrOmIsE) 
Intro: 
g ----------------------------------------------------- 
d ----------------------------------------------------- 
a ----5(x32)-------2(x32)------------------------------ 
e ----------------------------0(x32)-------5(x32)------ 
 
Verse: 
g ----------------------------------------------------- 
d ----------------------------------------------------- 
a ----5(x32)-------2(x32)------------------------------ 
e ----------------------------0(x32)-------5(x32)------ 
 
Chorus: 
g ----------------------------------------------------- 
d ----------------------------------------------------- 
a ----5(x32)-------2(x32)------------------------------ 
e ----------------------------0(x32)-------5(x32)------ 
 
Verse: 
g ----------------------------------------------------- 
d ----------------------------------------------------- 
a ----5(x32)-------2(x32)------------------------------ 
e ----------------------------0(x32)-------5(x32)------ 
 
Chorus: 
g ----------------------------------------------------- 
d ----------------------------------------------------- 
a ----5(x32)-------2(x32)------------------------------ 
e ----------------------------0(x32)-------5(x32)------ 
 
 
g ----------------------------------------------------- 
d ----------------------------------------------------- 
a ----------------------------------------------------- 
e --7777--5555-4444--00-44-5555--4444--2222--00--2----- 
 
g ----------------------------------------------------- 
d ----------------------------------------------------- 
a ----------------------------------------------------- 
e ----5555555555555555555555555555555555555555555------ 
 
g ----------------------------------------------------- 
d ----------------------------------------------------- 
a ----------------------------------------------------- 
e -----------5----------------------------------------- 
 
Chorus Final: 
g ----------------------------------------------------- 
d ----------------------------------------------------- 
a ----5(x32)-------2(x32)------------------------------ 
e ----------------------------0(x32)-------5(x32)------ 
 
End Note: 
g ------ 
d ------ 
a --5--- 
e ------ 
 
PuNk rock!! 
IM Good 

	  

Search Paypal
auto scroll beats size up size down change color hide chords drawings
tab show chords e-chords YouTube Clip e-chords hide all tabs e-chords go to top tab