Muse

home > Muse

Can't Take My Eyes Off You Bass Tab

Muse

Difficulty: EasyEasy

by diegosmartins10

tuner correct add songbook print version text version save to e-mail
chordsukulelecavacokeyboardtabbassdrumsharmonicsflute Guitar Pro
chords

Can't Take My Eyes Off You

Year: 2003 - Album: Deadstar/in Your World

	  Intro 
G|---------------------| 
D|---------------------| 
A|--3--3-3--3--3--3-3--|         x2 
E|---------------------| 
 
Verse 
G|---------------------|---------------------| 
D|---------------------|---------------------| 
A|--3--3-3--3--3--3-3--|--0--3-3--3--3--3-3--| 
E|---------------------|---------------------| 
 
G|---------------------|---------------------| 
D|---------------------|--0--3-3--3--3--3-3--| 
A|--0--3-3--3--3--3-3--|---------------------| 
E|---------------------|---------------------| 
 
G|---------------------|---------------------| 
D|--0--3-3--3--3--3-3--|---------------------| 
A|---------------------|--0--3-3--3--3--3-3--| 
E|---------------------|---------------------| 
 
G|---------------------|---------------------| 
D|---------------------|---------------------| 
A|--0--3-3--3--3--3-3--|--0--3-3--3--3--3-3--| 
E|---------------------|---------------------|                         x2 
 
Pre-Chorus 
G|------------------|-----------------| 
D|------------------|-----------------| 
A|--5-5-5-5-5-5-5-5-|-----------------| 
E|------------------|-3-3-3-3-3-3-3-3-| 
 
G|------------------|-----------------| 
D|------------------|-----------------| 
A|--3-3-3-3-3-3-3-3-|-3-3-3-3-3-3-3-3-| 
E|------------------|-----------------| 
 
G|------------------|-----------------| 
D|------------------|-----------------| 
A|--5-5-5-5-5-5-5-5-|-----------------| 
E|------------------|-3-3-3-3-3-3-3-3-| 
 
G|------------------|-----------------| 
D|------------------|-7-7-7-7-7-7-7-7-| 
A|--3-3-3-3-3-3-3-3-|-----------------| 
E|------------------|-----------------|  
 
Chorus 
G|------------------|-----------------| 
D|------------------|-----------------| 
A|--5-5-5-5-5-5-5-5-|-----------------| 
E|------------------|-3-3-3-3-3-3-3-3-| 
 
G|------------------|-----------------| 
D|------------------|-----------------| 
A|--3-3-3-3-3-3-3-3-|-----------------| 
E|------------------|-5-5-5-5-5-5-5-5-| 
 
G|------------------|-----------------| 
D|------------------|-----------------| 
A|--5-5-5-5-5-5-5-5-|-----------------| 
E|------------------|-3-3-3-3-3-3-3-3-| 
 
G|------------------|-----------------| 
D|------------------|-7-7-7-7-7-7-7-7-| 
A|--3-3-3-3-3-3-3-3-|-----------------| 
E|------------------|-----------------|                          x2 
 
Outro 
G|---------------------| 
D|---------------------| 
A|--0--3-3--3--3--3-3--| 
E|---------------------|                  x4 

	  

there isn't a video lesson for this song

request
Search
auto scroll beats size up size down change color hide chords drawings
tab show chords e-chords YouTube Clip e-chords hide all tabs e-chords go to top tab