Matthieu Chedid

Qui De Nous Deux

Matthieu Chedid

bass nolevel nolevel

by  EDUCASTILHO

save to print version add songbook text version e-mail correct tuner
chordsukulelecavacokeyboardtabbassdrumsharmonicaflute Guitar Pro
close

there isn't a video lesson for this song

chords

Qui De Nous Deux

	  		Bass enters at 0:30 

Verse 

"Bras de bois..."          
G|-----------------|-----------------|-----------------|-----------------| 
D|-10--------------|-10-10-8---------|-----------------|-------10--------| 
A|-----------------|---------10------|-10-10-10-8------|-8-8-8-----------| 
E|-----------------|-----------------|-----------------|-----------------| 

          "Agite-nous" 
G|-----------------|-----------------|-----------------|-----------------| 
D|-10-10-10-10-----|-10-10-8---------|-----------------|-------10--------| 
A|-----------------|---------10------|-10-10-10-8------|-8-8-8-----------| 
E|-----------------|-----------------|-----------------|-----------------| 


Chorus 
  
           "Qui..." 
G|------------------|-----------------|-----------------|------------------| 
D|-10-10-10-10--10--|-10-10-8---------|-----------------|-------10--10--10-| 
A|------------------|---------10--10--|-10-10-10-8------|-8-8-8------------| 
E|------------------|-----------------|-----------------|------------------| 


Verse 

0:52 
G|-----------------|-----------------|-----------------|----------8-9-----|------------------| 
D|-10-10-10-10-----|-10-10-8---------|-----------------|------------------|-10-8---------10--| 
A|-----------------|---------10------|-10-10-10-8------|-8-8-8-10---------|------10-8--------| 
E|-----------------|-----------------|-----------------|------------------|-----------10-----| 

G|-----------------|-----------------| 
D|-10-10-8---------|-----------------| 
A|---------10------|-10-10-5---------| 
E|-----------------|-----------------| 


Chorus 

"Qui de nous deux..." 
G|-----------------|-----------------|------------------|---------------|------------------| 
D|-10--10----------|-10-10-8---------|------------------|----10--10--10-|-10-10--10-10-----| 
A|-----------------|---------10-10---|-10-10-10-8--8--8-|-8-------------|------------------| 
E|-----------------|-----------------|------------------|---------------|------------------| 

G|-----------------|-----------------|-----------------|----------------| 
D|-10-10-8---------|-----------------|-----------------|----------------| 
A|---------10------|-10-10-8---------|-----------------|----------------| 
E|-----------------|-----------------|-----------------|----------------| 


Verse 

1:22 
G|-----------------|-----------------|-----------------|------------------|-----------------| 
D|-10--------------|-10-10-8---------|-----------------|-------10--10--10-|-10-10-10-10-----| 
A|-----------------|---------10------|-10-10-10-8------|-8-8-8------------|-----------------| 
E|-----------------|-----------------|-----------------|------------------|-----------------| 

G|-----------------|------------------|---------------|----------7--------| 
D|-10-10-8---------|------------------|----10--10--10-|-10-10-10----10----| 
A|---------10------|-10-10-10-8--8--8-|-8-------------|----------------10-| 
E|-----------------|------------------|---------------|-------------------| 


Chorus 

1:39 
G|-----------------|----------------|--------------|--------------------|------------------| 
D|-10--10----------|-10-10-8--------|--------------|---------10--10--10-|-10-10--10-10--10-| 
A|-----------------|---------10--10-|-10--10--8--8-|-8--8--8------------|------------------| 
E|-----------------|----------------|--------------|--------------------|------------------| 

G|----------------|--------------|-----------------|----------------|----------------| 
D|-10-10-8--------|--------------|-----------------|----------------|----------------| 
A|---------10--10-|-10--10--8----|-8-----8-----8---|-8-----8-----8--|-8/1------------| 
E|----------------|--------------|-----------------|----------------|----------------| 


Verse 

"Je t'appréhende..." 
G|---------------|----------------|------------------|---------------|-----------------| 
D|-10------------|-10-10-8--------|------------------|-------10-10---|-10-10-10-10-----| 
A|---------------|---------10-----|-10-10-10-8--8--8-|-8-8-8---------|-----------------| 
E|---------------|----------------|------------------|---------------|-----------------| 

G|-----------------|-----------------|-----------------|----------------| 
D|-10-10-8---------|-----------------|-----10----------|-10-10-10-------| 
A|---------10------|-10-10-8---------|-8-8-------------|----------------| 
E|-----------------|-----------------|-----------------|----------------| 


Chorus 
      
     "Mais..." 
G|------------------|----------------|------------------|---------------|-----8-9--8-----------------| 
D|-10-10-10-10--10--|-10-10-8--------|------------------|-------10------|--10--------10-8----10--10--| 
A|------------------|---------10--10-|-10-10-10-8--8--8-|-8-8-8---------|-----------------10---------| 
E|------------------|----------------|------------------|---------------|----------------------------| 

G|----------------|------------------|------------------|------------------|-----------------| 
D|-10-10-8--------|---------------3--|---------------3--|---------------3--|--------------3--| 
A|---------10--10-|-10-10-10--8------|-----------8------|-----------8------|-----------8-----| 
E|----------------|---------------1--|---------------1--|---------------1--|--------------1--| 

G|----------------|------------------| 
D|-------------3--|---------------3--| 
A|---------8------|-----------8------| 
E|-------------1--|---------------1--| 


Bridge 

2:37 
G|------------------------|--------------------|----------------|------------------| 
D|-10--10--10--10-10-8----|--------------------|-------------10-|-10--10--10-10-10-| 
A|---------------------10-|-10--10--10-10-10-8-|-8--8--8-8-8----|------------------| 
E|------------------------|--------------------|----------------|------------------| 

G|------------------------|--------------------|----------------|------------------| 
D|-10--10--10--10-10-8----|--------------------|-------------10-|-10--10--10-10-10-| 
A|---------------------10-|-10--10--10-10-10-8-|-8--8--8-8-8----|------------------| 
E|------------------------|--------------------|----------------|------------------| 

Bass tacet (2:54 - 3:09) 

Chorus 

G|-------------------|--------------|-----------------|----------------|--------------------| 
D|-10-12-10-10-12-10-|-10-----------|-10-10-8---------|----------------|---------10--10--10-| 
A|-------------------|--------------|---------10--10--|-10-10-10--8--8-|-8-8-8-8------------| 
E|-------------------|--------------|-----------------|----------------|--------------------| 

G|-----------------|-------------------|-----------------------|--------------| 
D|-10-10-10-10--10-|-10-10-10-8--------|-----------------------|---------1----| 
A|-----------------|------------10--10-|-10-10-10--8--8--8-8-8-|-3--3--3---3--| 
E|-----------------|-------------------|-----------------------|--------------| 

G|--------------|-----------------|----------------|--------------------|-----------------| 
D|-10-----------|-10-10-8---------|----------------|---------10--10--10-|-10-10-10-10--10-| 
A|--------------|---------10--10--|-10-10-10--8--8-|-8-8-8-8------------|-----------------| 
E|--------------|-----------------|----------------|--------------------|-----------------| 

G|-------------------|-----------------------|--------------| 
D|-10-10-10-8--------|-----------------------|-----10--10---| 
A|------------10--10-|-10-10-10--8--8--8-8-8-|-3\8----------| 
E|-------------------|-----------------------|--------------| 


************************************ 
| /   Slide up 
| \   Slide down 
************************************ 
		  

See also:

bass Matthieu Chedid - Qui De Nous Deux bass Matthieu Chedid - Onde Sensuelle
e-chords

Other versions:

bass Matthieu Chedid - Qui De Nous Deux
auto scroll beats size up size down change color hide chords drawings
tab show chords e-chords YouTube Clip e-chords hide all tabs e-chords go to top tab

share with facebook