Matthieu Chedid

Onde Sensuelle

Matthieu Chedid

bass

by  EDSOOLIVEIRA

save to print version add songbook text version e-mail correct tuner
chordsukulelecavacokeyboardtabbassdrumsharmonicaflute Guitar Pro
close

there isn't a video lesson for this song

chords

Onde Sensuelle

	  		
Intro 
G|---------------------------------------------------| 
D|-----------------6--6--6--5~~5~~5--5---------------| 
A|--4--4--4--4--6------------------------------------|              x2 
E|---------------------------------------------------| 

 Verse 
G|----------------------------------------------------| 
D|-----------------6--6--6--5~~5~~5--5----------------| 
A|--4--4--4--4--6-------------------------------------|                x3 
E|----------------------------------------------------| 

G|-------------------------------------| 
D|-----------------6--6--6--5~~5~~5--5-| 
A|--4-----6--6-6-----------------------| 
E|-------------------------------------| 

 Chorus 
G|-----------------------------|-------------------812----------| 
D|-3.--3-3-5-6.-6-6-3-6-5-5----|-3--5-6--7-8--9-10--------------| 
A|---------------------------3-|--------------------------------|        x2 
E|-----------------------------|--------------------------------| 

 Bridge 
G|-------------------------------------------------| 
D|-11----11----11----11----10----10----10----10----| 
A|----11----11----11----11----10----10----10----10-| 
E|-------------------------------------------------| 



************************************ 

| ~  Vibrato 
| .   
Staccato 

************************************ 
		  

See also:

bass Matthieu Chedid - Onde Sensuelle bass Matthieu Chedid - Qui De Nous Deux
e-chords

Other versions:

bass Matthieu Chedid - Onde Sensuelle
auto scroll beats size up size down change color hide chords drawings
tab show chords e-chords YouTube Clip e-chords hide all tabs e-chords go to top tab

share with facebook