Mastodon

Precious Stones

Mastodon

bass

by  ANDRSOUZA

save to print version add songbook text version e-mail correct tuner
chordsukulelecavacokeyboardtabbassdrumsharmonicaflute Guitar Pro
close

there isn't a video lesson for this song

chords

Precious Stones

	  		Tab by lapentagosse 

tuning in drop C(CGCF) 


INTRO(0:00)X1 
F|--------|--------|--------|--------| 
C|--------|--------|--------|--------| 
G|--------|--------|--------|--------| 
C|0-------|--------|0-------|--------| 

F|--------| 
C|--------| X4 
G|--------| 
C|0(x8)---| 

VERSE(0:11)X4 
F|------------|--------------| 
C|------------|--------------| 
G|4--4--4-4-4-|4--4--4--4-4-4| 
C|------------|--------------| 

F|------------|--------------| 
C|------------|--------------| 
G|0--0--0-0-0-|5--5--5--5-5-5| 
C|------------|--------------| 

Pre-Chorus(0:35) 
F|--------|--------|--------|--------| 
C|--------|--------|--------|--------| 
G|--------|--------|3--3----|3--3----| 
C|6--6----|6--6----|--------|--------| 

Chorus(0:42)X4 
F|------------|--------------|------------|------------| 
C|------------|--------------|------------|------------| 
G|------------|--------------|------------|------------| 
C|2--2--2-2-2-|2--2--2--2-2-2|6--6--6-6-6-|6--6--6--6-6| 

VERSE(1:05)X4 
F|------------|--------------| 
C|------------|--------------| 
G|4--4--4-4-4-|4--4--4--4-4-4| 
C|------------|--------------| 

F|------------|--------------| 
C|------------|--------------| 
G|0--0--0-0-0-|5--5--5--5-5-5| 
C|------------|--------------| 

Pre-Chorus(1:28) 
F|--------|--------|--------|--------| 
C|--------|--------|--------|--------| 
G|--------|--------|3--3----|3--3----| 
C|6--6----|6--6----|--------|--------| 

Chorus(1:34)X4 
F|------------|--------------|------------|------------| 
C|------------|--------------|------------|------------| 
G|------------|--------------|------------|------------| 
C|2--2--2-2-2-|2--2--2--2-2-2|6--6--6-6-6-|6--6--6--6-6| 

BRIDGE 1(2:00) 
F|------------|------------|------------|------------| 
C|------------|------------|------------|------------| 
G|------------|------------|------------|------------| 
C|7--7-7-7-7-7|5--5-5-5-5-5|3--3-3-3-3-3|5--5-5-5-5-5| 

F|------------|------------|------------|------------| 
C|------------|------------|------------|------------| 
G|------------|------------|------------|------------| 
C|7--7-7-7-7-7|5--5-5-5-5-5|3--3-3-3-3-3|2--2-2-2-2-2| 


BRIDGE 2(2:11)X2 

F|-------------|----------9---|-------------|---------9----9| 
C|-----9h10p9--|----9--10---10|-----9h10p9--|----9-10---10--| 
G|0-7--------7-|0-7-----------|0-7--------7-|0-7-----------| 
C|-------------|--------------|-------------|---------------| 

BRIDGE 1(2:23) 
F|------------|------------|------------|------------| 
C|------------|------------|------------|------------| 
G|------------|------------|------------|------------| 
C|7--7-7-7-7-7|5--5-5-5-5-5|3--3-3-3-3-3|5--5-5-5-5-5| 

F|------------|------------|------------|------------| 
C|------------|------------|------------|------------| 
G|------------|------------|------------|------------| 
C|7--7-7-7-7-7|5--5-5-5-5-5|3--3-3-3-3-3|2--2-2-2-2-2| 

Pre-Chorus(2:34)X2 
F|--------|--------|--------|--------| 
C|--------|--------|--------|--------| 
G|--------|--------|3--3----|3--3----| 
C|6--6----|6--6----|--------|--------| 

VERSE(2:47)X5 
F|------------|--------------| 
C|------------|--------------| 
G|4--4--4-4-4-|4--4--4--4-4-4| 
C|------------|--------------| 

F|------------|--------------| 
C|------------|--------------| 
G|0--0--0-0-0-|5--5--5--5-5-5| 
C|------------|--------------| 

SOLO(3:16)X2 
F|-----------|--------------|-----------|--------------| 
C|-----------|--------------|-----------|--------------| 
G|-----------|--------------|3--3--3-3-3|3--3--3--3-3-3| 
C|6--6--6-6-6|2--2--2--2-2-2|-----------|--------------| 

F|-----------|--------------|-----------|--------------| 
C|-----------|--------------|-----------|--------------| 
G|-----------|--------------|3--3--3-3-3|7--7--7--7-7-7| 
C|6--6--6-6-6|2--2--2--2-2-2|-----------|--------------| 

OUTRO(3:39) 
F|--------|--------|--------| 
C|--------|--------|--------| 
G|--------|--------|--------| 
C|0-------|0-------|0-------| 

- 

end of the song 

legend 

h: hammer on 
p: pull-off 
		  

Full key step upFull key step up
Half key step upHalf key step up
Half key step downHalf key step down
Full key step downFull key step down
hide glossary

See also:

bass Slipknot - Circle bass Dream Theater - Overture 1928 (ver. 2) bass Alice Cooper - Sick Things bass Alice Cooper - Is It My Body bass Dream Theater - Stream Of Consciousness bass Dream Theater - The Spirit Carries on
e-chords

Other versions:

bass Mastodon - Precious Stones
auto scroll beats size up size down change color hide chords drawings
tab show chords e-chords YouTube Clip e-chords hide all tabs e-chords go to top tab

share