Manowar

Black Wind Fire And Steel

Manowar

bass Beginner beginner

save to print version add songbook text version e-mail correct tuner
chordsukulelecavacokeyboardtabbassdrumsharmonicaflute Guitar Pro
close

there isn't a video lesson for this song

chords

Black Wind Fire And Steel

	  		 First verse:       
G|--------5--------7---9------------|----| 
D|--------5--------7---9------------|----| 
A|/-------3--------5---7------------|----| 
E|----------------------------------|----| 
                                          
G|--5--------7---9--------9---------|----| 
D|--5--------7---9--------9---------|----| 
A|/-3--------5---7--------7---------|----| 
E|----------------------------------|----| 
 
Chorus: "Born of Black wind, fire..."                                   
G---||-------------------------------------------------||----------| 
D---||*-----------------------------------------------*||----------| 
A---||*-----------5--5--5--5--7--7--7--7--7--7--7--7--*||----------| 
E---||3--3--3--3---------------------------------------||----------| 
                                                  
G------------------------------------------------|-----------------| 
D------------------------------------------------|-----------------| 
A------------5--5--5--5--7--7--7--7--7--7--7--7--|-----------------| 
E3--3--3--3--------------------------------------|-----------------| 
            
G-----------------------------------------------| 
D-----------------------------------------------| 
A---3333333333333333555555555555555577777777----| 
E-----------------------------------------------| 
 
 
Verse 2 and 3... 
  (Listen and play the 7/9's with the drums) 
G|--9---9---9---9---9---9---9---5---7---9-----------|---- 
D|--9---9---9---9---9---9---9---5---7---9-----------|---- 
A|--7---7---7---7---7---7---7--/3---5---7-----------|---- 
E|--------------------------------------------------|---- 
 
Guitar solo 
G|-------------------------------------------------------------|---- 
D|------------------------------------------------------------*|---- 
A|77777777777777777777777777777-------3-----5------7----------*|---- 
E|-------------------------------------------------------------|---- 
 
                                                 Play 3 times 
G---||----------------------------------------------------||---- 
D---||*--------------------------------------------------*||---- 
A---||*-------------5-5-5-5-7-7-7-7-7-7-7-7--------------*||---- 
E---||---3-3-3-3------------------------------------------||---- 
 
G---|------------------------------------------------------|---- 
D---|------------------------------------------------------|---- 
A---|---333333333333333355555555555555557777777777777777---|---- 
E---|------------------------------------------------------|---- 
 
Last Verse 
G|-------------------------------------------------------------|---- 
D|------------------------------------------------------------*|---- 
A|77777777777777777777777777777-------3-----5------7----------*|---- 
E|-------------------------------------------------------------|---- 
 
Chorus after solo:                                 
G---||----------------------------------------------------||---- 
D---||*--------------------------------------------------*||---- 
A---||*--------------5--5--5--5--7--7--7--7--7--7--7--7--*||---- 
E---||---3--3--3--3---------------------------------------||---- 
                                                
G---------------------------------------------------|---- 
D---------------------------------------------------|---- 
A---------------5--5--5--5--7--7--7--7--7--7--7--7--|---- 
E---3--3--3--3--------------------------------------|---- 
 
G|---5-5---7--7---9----------| 
D|*--5-5---7--7---9---------*| 
A|*--3-3---5--5---7---------*| 
E|---------------------------| 
 
G|---5------------7---------99999--------| 
D|---5------------7---------99999--------| 
A|---3------------5---------77777--------| 
E|---------------------------------------| 

		  

auto scroll beats size up size down change color hide chords drawings
tab show chords e-chords YouTube Clip e-chords hide all tabs e-chords go to top tab

share