Manfred Mann

Sing Song Of Love

Manfred Mann

bass

by  GUSTSILVA

save to print version add songbook text version e-mail correct tuner
chordsukulelecavacokeyboardtabbassdrumsharmonicaflute Guitar Pro
close

there isn't a video lesson for this song

chords

Sing Song Of Love

	  		Tabbed by: 6METAL6BASSIST6 
E-mail: [email protected] 

Tuning: EADG 

G|----------------------------------------------------------------| 
D|------------8-------------------------------8-------------------| x3 
A|------------------------8-------------------------------8-------| 
E|6-------------------------------6-------------------------------| 

G|--------------------------------| 
D|------------8-------------------| 
A|6-----------------------6-------| 
E|--------------------------------| 

0:17 

G|----------------------------------------------------------------| 
D|------------8-------------------------------8-------------------| x5 
A|------------------------8-------------------------------8-------| 
E|6-------------------------------6-------------------------------| 

G|----------------------------------------------------5-----------| 
D|------------8-------------------------------5-----------5-------| 
A|6-----------------------6-------3---------------------------3---| 
E|----------------------------------------------------------------| 

0:45 

G|----------------------------------------------------------------| 
D|------------8-------------------------------8-------------------| x3 
A|------------------------8-------------------------------8-------| 
E|6-------------------------------6-------------------------------| 

G|--------------------------------| 
D|------------8-------------------| 
A|6-----------------------6-------| 
E|--------------------------------| 

G|----------------------------------------------------------------| 
D|------------8-------------------------------8-------------------| 
A|------------------------8-------------------------------8-------| 
E|6-------------------------------6-------------------------------| 

1:07 

G|----------------------------------------------------------------| 
D|------------8-------------------------------8-------------------| x5 
A|------------------------8-------------------------------8-------| 
E|6-------------------------------6-------------------------------| 

G|----------------------------------------------------5-----------| 
D|------------8-------------------------------5-----------5-------| 
A|6-----------------------6-------3---------------------------3---| 
E|----------------------------------------------------------------| 

1:35 Until fadeout. 

G|----------------------------------------------------------------| 
D|------------8-------------------------------8-------------------| 
A|------------------------8-------------------------------8-------| 
E|6-------------------------------6-------------------------------| 
		  

See also:

bass Creedence Clearwater Revival - Hindway bass Creedence Clearwater Revival - Have You Eever Seen The Rain bass Johnny Cash - Ring Of Fire bass Doobie Brothers - Listen To The Music bass Johnny Cash - Folsom Prison Blues bass Beach Boys - Surfin Usa
e-chords

Other versions:

bass Manfred Mann - Sing Song Of Love
auto scroll beats size up size down change color hide chords drawings
tab show chords e-chords YouTube Clip e-chords hide all tabs e-chords go to top tab

share