Lynyrd Skynyrd

Tuesday's Gone

Lynyrd Skynyrd

bass Expert expert

by  MISS-TYLER

save to print version add songbook text version e-mail correct tuner
chordsukulelecavacokeyboardtabbassdrumsharmonicaflute Guitar Pro
close

there isn't a video lesson for this song

chords

Tuesday's Gone

Written by Allen Collins, Vanzant Ronald W

	  		"Tuesday's Gone" 
Lynyrd Skynyrd   
  
  Intro 
G|14----14/16-14-13----14----13-11----11/13-11-7--- 
D|-------------------------14---------------------- 
A|------------------------------------------------- 
E|------------------------------------------------- 
  
 ---14----13-14-/16--------------42---------------| 
 -14------------------------4-------4-2-42--------| 
 ----------------------5-------------------4--42-0| 
 -------------------------------------------------| 
 
  Bridge/Verse 
G|------------------------------------------------ 
D|------02----234----4/5-4-0----0-2-/4\------02--- 
A|0----2-----------------------2-------0----2----- 
E|------------------------------------------------ 
  
 ------------7-5---7---4-------| 
 2/4-2---4-7-----7-------------| 
 ------5-----------------------| 
 --------------------------0-4-| 
 
  Second part of verse  
(noted for its different ending leading to Chorus) 
G|--------------------------------------------- 
D|------02----234----4/5-4-0----0-2-/4\------02 
A|0----2-----------------------2-------0----2-- 
E|--------------------------------------------- 
  
---------------7-5---7-------------| 
 ---2/4-2---4-7-----7-----7---------| 
 ---------5-----------------5-------| 
 -------------------------------0-4-| 
 
  First Chorus 
G|-------------------------------------------------- 
D|------767---------545----------------------434-567 
A|--4-7-----7---2-5-------5------5-----545-7-------- 
E|5-----------3---------5-----035----35------------- 
 
  ----------------------------7-5---797----------| 
  ----------02------------4-7-----7----97-75-----| 
  ---7-----2-----2------5-------------------764\-| 
  -----5-----------0--0--------------------------| 
 
  Longer Chorus 
G|-------------------------------------------------- 
D|------767---------545----------------------434-567 
A|--4-7-----7---2-5-------5------5-----545-7-------- 
E|5-----------3---------5-----035----35------------- 
 
 ---------------------------------------------------- 
 ----767---------545----------------------434-567---- 
 --7-----7---2-5-------5------5-----545-7----------7- 
 ----------3---------5-----035----35----------------- 
  
 ---------------------------------------------------- 
 767---------545----------------------434-567-----7-9 
 ----7---2-5-------5------5-----545-7-----------7---- 
 ------3---------5-----035----35--------------------- 
  
 -------------------7-5---797-----------| 
 -7----2--------4-7-----7----97-75------| 
 ---7---2-----5-------------------764\-0| 
 --------0--0---------------------------| 
 
  Solo (Repeat) 
G|-------------------------------------------------- 
D|--2--2----234----4/5-4-0----0-2-/4\-----2--2---2-4 
A|----2----------------------2-------0------2------- 
E|-------------------------------------------------- 
  
 --------------------------| 
 ---------4-5---------5-/7-| 
 -4-0---4-----5-0---2------| 
 -----2-----------3--------| 
		  

auto scroll beats size up size down change color hide chords drawings
tab show chords e-chords YouTube Clip e-chords hide all tabs e-chords go to top tab

share