Limp Bizkit

home > Limp Bizkit

My Way Bass Tab

Limp Bizkit

Difficulty: nolevelnolevel

by Teusalves

tuner correct add songbook print version text version save to e-mail
chordsukulelecavacokeyboardtabbassdrummharmonicsflute Guitar Pro
chords

My Way

	  Estrofe 

--------------------16---------9------------------14------------ 
-----------------14---------9------------------14---------9----- 
--------------12---------7------------------12---------7-------- 
---------------------------------------------------------------- 
-2-------------------------------2---2-------------------------- 



--------------------16---------9------------------14------------ 
-----------------14---------9------------------14---------9----- 
--------------12---------7------------------12---------7-------- 
---------------------------------------------------------------- 
-2-------------------------------2---2-------------------------- 



--------------------16---------9------------------14------------ 
-----------------14---------9------------------14---------9----- 
--------------12---------7------------------12---------7-------- 
---------------------------------------------------------------- 
-2-------------------------------2---2-------------------------- 



--------------------16---------9------------------14------------ 
-----------------14---------9------------------14---------9----- 
--------------12---------7------------------12---------7-------- 
---------------------------------------------------------------- 
-2-------------------------------2---2-------------------------- 


Refrão 


---------------------------------------------------------------- 
---------------------------------------------------------------- 
---------------------------------------------------------------- 
-----------------------------0---0-0--0-0-0--0-0-0--0-0--------- 
-2---2-2---2-2-2--2-2-2--2-2------------------------------------ 



---------------------------------------------------------------- 
---------------------------------------------------------------- 
-------------------------------------------------7h9-9-9-------- 
-----------------------------0---0-0--0-0-0--0-0---------------- 
-2---2-2---2-2-2--2-2-2--2-2------------------------------------ 



---------------------------------------------------------------- 
---------------------------------------------------------------- 
---------------------------------------------------------------- 
-----------------------------0---0-0--0-0-0--0-0-0--0-0--------- 
-2---2-2---2-2-2--2-2-2--2-2------------------------------------ 



---------------------------------------------------------------- 
---------------------------------------------------------------- 
---------------------------------------------------------------- 
-----------------------------0---0-0--0-0-0--0-0-0--0-0-0------- 
-2---2-2---2-2-2--2-2-2--2-2------------------------------------ 


Bridge 


---------------------------------------------------------------- 
---------------------------------------------------------------- 
---------------------------------------------------------------- 
---------------------------------------------------------------- 
-2--2---2--2--x-x-x-x-x-5-2-5-5--5-2-5-2-5-5--2-5-2-5-2--------- 



---------------------------------------------------------------- 
---------------------------------------------------------------- 
---------------------------------------------------------------- 
---------------------------------------------------------------- 
-2--2---2--2--x-x-x-x-x-5-2-5-5--5-2-5-2-5-5--2-5-2-5-2--------- 



---------------------------------------------------------------- 
---------------------------------------------------------------- 
---------------------------------------------------------------- 
---------------------------------------------------------------- 
-2--2---2--2--x-x-x-x-x-5-2-5-5--5-2-5-2-5-5--2-5-2-5-2--------- 



---------------------------------------------------------------- 
---------------------------------------------------------------- 
---------------------------------------------------------------- 
---------------------------------------------------------------- 
-2--2---2--2--x-x-x-x-x-5-2-5----------------------------------- 


Especial 


---------------------------------------------------------------- 
-------------------------6-----------------9------4------------- 
-1/4-------4/7---------6----6-------7----9------4--------------- 
-------5---------7---4--------x---7----7------2----------------- 
--------------------------------5------------------------------- 



------6-----------------9--------------------------------------- 
----6----6-------7----9--------9-------------------------------- 
--4--------4---7----7--------9---------------------------------- 
-------------5-------------7------------------------------------ 
---------------------------------------------------------------- 
	  

there isn't a video lesson for this song

request
Search
auto scroll beats size up size down change color hide chords drawings
tab show chords e-chords YouTube Clip e-chords hide all tabs e-chords go to top tab