Led Zeppelin

home > Led Zeppelin

Gallows Pole Bass Tab

Led Zeppelin

Difficulty: BeginnerBeginner

tuner correct add songbook print version text version save to e-mail
chordsukulelecavacokeyboardtabbassdrumsharmonicsflute Guitar Pro
chords

Gallows Pole

Year: 1970 - Album: Led Zeppelin III

  		  When bass comes in at approx. 01:18
G|----------------|----------------|----------------|
D|----------------|----------------|----------------|
A|----------------|----------------|----------------|
E|3-5-3-5-5-5-5-5-|3-5-3-5-5-5-5-5-|3-5-3-5-5-5-5-5-|

G|--------|
D|5-------|
A|----5---|
E|--------|

G|----------------|----------------|----------------|----------------|
D|----------------|----------------|----------------|----------------|
A|----------------|----------------|----------------|----------------|
E|3-5-3-5-5-5-5-5-|3-5-3-5-5-5-5-5-|3-5-3-5-5-5-5-5-|3-5-3-5-5-5-5-5-|

G|----------------|--------|
D|----------------|5-420---|
A|----------------|--------|
E|3-5-3-5-5-5-5-5-|--------|

G|----------------|----------------|--------|
D|----------------|----------------|--------|
A|----------------|----------------|3---5---|
E|3-5-3-5-5-5-5-5-|3-5-3-5-5-5-5-5-|--------|

G|----------------|----------------|
D|----------------|----------------|
A|----------------|----------------|
E|3-5-3-5-5-5-5-5-|3-5-3-5-5-5-5-5-|

G|-------4--------|--------------4-|-------4--------|--------|
D|7---5-7-----5---|7-------5------5|7---5-------5---|5-42----|
A|--------5-79----|----5-79--------|--------5-79----|----5-20|
E|----------------|----------------|----------------|--------|

G|----------------|----------------|----------------|----------------|
D|----------------|----------------|----------------|----------------|
A|----------------|----------------|----------------|----------------|
E|3-5-3-5-5-5-5-5-|3-5-3-5-5-5-5-5-|3-5-3-5-5-5-5-5-|3-5-3-5-5-5-5-5-|

G|----------------|----------------|--------|
D|----------------|----------------|5-------|
A|----------------|----------------|----5---|
E|3-5-3-5-5-5-5-5-|3-5-3-5-5-5-5-5-|--------|

G|----------------|----------------|----------------|
D|----------------|----------------|----------------|
A|----------------|----------------|----------------|
E|3-5-3-5-5-5-5-5-|3-5-3-5-5-5-5-5-|3-5-3-5-5-5-5-5-|

G|--------|
D|5-------|
A|----5---|
E|--------|

G|----------------|----------------|
D|----------------|----------------|
A|----------------|----------------|
E|3-5-3-5-5-5-5-5-|3-5-3-5-5-5-5-5-|

G|-------4--------|--------------4-|-------4--------|--------|
D|7---5-7-----5---|7-------5------5|7---5-------5---|5-42----|
A|--------5-79----|----5-79--------|--------5-79----|----5-20|
E|----------------|----------------|----------------|--------|

G|----------------|----------------|----------------|----------------|
D|----------------|----------------|----------------|----------------|
A|----------------|----------------|----------------|----------------|
E|3-5-3-5-5-5-5-5-|3-5-3-5-5-5-5-5-|3-5-3-5-5-5-5-5-|3-5-3-5-5-5-5-5-|

G|----------------|----------------|--------|
D|----------------|----------------|5-42----|
A|----------------|----------------|----5-20|
E|3-5-3-5-5-5-5-5-|3-5-3-5-5-5-5-5-|--------|

G|----------------|----------------|----------------|----------------|
D|----------------|----------------|----------------|----------------|
A|----------------|----------------|----------------|----------------|
E|3-5-3-5-5-5-5-5-|3-5-3-5-5-5-5-5-|3-5-3-5-5-5-5-5-|3-5-3-5-5-5-5-5-|

G|----------------|--------|
D|----------------|5-42----|
A|----------------|----5-20|
E|3-5-3-5-5-5-5-5-|--------|

G|----------------|----------------|----------------|
D|----------------|----------------|----------------|
A|----------------|----------------|----------------|
E|3-5-3-5-5-5-5-5-|3-5-3-5-5-5-5-5-|3-5-3-5-5-5-5-5-|

G|--------|
D|5-------|
A|----5---|
E|--------|

G|----------------|----------------|----------------|----------------|
D|----------------|----------------|----------------|5-42------------|
A|----------------|----------------|----------------|----5320--------|
E|3-5-3-5-5-5-5-5-|3-5-3-5-5-5-5-5-|5-5-5-5-5-5-5-5-|--------3-5-3-5-|

G|----------------|----------------|----------------|----------------|
D|5-42------------|5-42------------|5-42------------|5-42------------|
A|----5320--------|----5320--------|----5320--------|----5320--------|
E|--------3-5-3-5-|--------5-3-5-3-|--------5-3-5-3-|--------5-3-5-3-| 8X

G|----------------|----------------|----------------|----------------|
D|5-42-----------5|5-42-----------5|5-42-----------5|5-42------------| 2X
A|----5320--------|----5320--------|----5320--------|----5320--------|then
E|--------5-3-5-3-|--------5-3-5-3-|--------5-3-5-3-|--------5-3-5-3-|fade
	  

Search Paypal
auto scroll beats size up size down change color hide chords drawings
tab show chords e-chords YouTube Clip e-chords hide all tabs e-chords go to top tab