Led Zeppelin

home > Led Zeppelin

Fool In The Rain Bass Tab

Led Zeppelin

Difficulty: BeginnerBeginner

tuner correct add songbook print version text version save to e-mail
chordsukulelecavacokeyboardtabbassdrumsharmonicsflute Guitar Pro
chords

Fool In The Rain

Year: 1979 - Album: In Through the Out Door

  		      Afinação
      4321
      EADG

  12/8 tempo
G|------------------------|------------------------|------------------------|
D|--------2---3-----7---5-|(5)---------------------|--------2---3-----3---5-|
A|3---5-------------------|------------------------|3---5-------------------|
E|------------------------|----3-------------------|------------------------|

G|------------------------|------------------------|------------------------|
D|(5)---------------------|--------2---3-----7---5-|(5)---------------------|
A|------------------------|3---5-------------------|------------------------|
E|------------------------|------------------------|----3-------------------|

G|------------------------|------------------------||------------------------|
D|--------2---3-----3---5-|(5)---------------------||--------2---3-----7---5-|
A|3---5-------------------|----------------------2-||3---5-------------------|
E|------------------------|--------------------5---||------------------------|
                                    Well, there's a  light in your eye....

G|------------------------|------------------------|------------------------|
D|(5)---------------------|--------2---3-----3---5-|(5)---------------------|
A|------------------------|3---5-------------------|------------------------|
E|----3-------------------|------------------------|------------------------|

G|------------------------|------------------------|------------------------|
D|--------2---3-----7---5-|(5)---------------------|--------2---3-----3---5-|
A|3---5-------------------|------------------------|3---5-------------------|
E|------------------------|----3-------------------|------------------------|

G|------------------------|------------------------|------------------------|
D|(5)---------------------|--------2---3-----7---5-|(5)---------------------|
A|------------------------|3---5-------------------|------------------------|
E|------------------------|------------------------|----3-------------------|

                                          para Coda
G|------------------------|------------------------||------------------------|
D|--------2---3-----3---5-|(5)---------------------||--------2---3-----7---5-|
A|3---5-------------------|--------------------0-2-||3---5-------------------|
E|------------------------|------------------3-----||------------------------|

G|------------------------|------------------------|------------------------|
D|(5)---------------------|--------2---3-----3---5-|(5)---------------------|
A|------------------------|3---5-------------------|------------------------|
E|----3-------------------|------------------------|------------------------|

G|------------------------|------------------------|------------------------|
D|--------2---3-----7---5-|(5)---------------------|--------2---3-----3---5-|
A|3---5-------------------|------------------------|3---5-------------------|
E|------------------------|----3-------------------|------------------------|

G|------------------------||
D|(5)---------------3-2-0-||
A|------------------------||
E|------------------------||
                And if you

G| ------------------------|------------------------|------------------------|
D|o--------2---3-----7---5-|(5)---------------------|--------2---3-----3---5-|
A|o3---5-------------------|------------------------|3---5-------------------|
E| ------------------------|----3-------------------|------------------------|
   promised your love so completely....
   stand in the rain on the corner....

G|------------------------|------------------------|------------------------|
D|(5)---------------------|--------2---3-----7---5-|(5)---------------------|
A|------------------------|3---5-------------------|------------------------|
E|------------------------|------------------------|----3-------------------|

G|------------------------|------------------------|----------------2---5---|
D|--------2---3-----3---5-|(5)---------------------|----2---5---3-----------|
A|3---5-------------------|--------------------0-2-|3-----------------------|
E|------------------------|------------------3-----|------------------------|
                                            And you thought it was only in....

G|------------4-0-2-------|----------------2---5---|4-----------4-0-2-------|
D|4-----------------3-5-2-|----2---5---3-----------|----5-------------3-5-2-|
A|----5-------------------|3-----------------------|------------------------|
E|------------------------|------------------------|------------------------|

G|----------------2---5---|4-----------4-0-2-------|----------------2---5---|
D|----2---5---3-----------|----5-------------3-5-2-|----2---5---3-----------|
A|3-----------------------|------------------------|3-----------------------|
E|------------------------|------------------------|------------------------|

G|4-----------4-0-2-------|------------------------|------------------------|
D|----5-------------3-5-2-|--------2---3-----------|------------------------|
A|------------------------|3---5-------------------|------------------------|
E|------------------------|------------------1---3-|(3)---------------------|

G|------------------------|------------------------|------------------------|
D|--------2---3-----3---5-|(5)---------------------|--------2---3-----7---5-|
A|3---5-------------------|------------------------|3---5-------------------|
E|------------------------|------------------------|------------------------|
                                                    _________________________
                                                   |1.                       |
G|------------------------|------------------------|------------------------ |
D|(5)---------------------|--------2---3-----3---5-|(5)-------------------5-o|
A|----------------------2-|3---5-------------------|------------------------o|
E|----3-------------------|------------------------|------------------------ |
  _________________________
 |2.
G|------------------------||
D|------------------------||
A|------------------------||
E|------------------------||

   2/2 tempo
G| ----------------|----------------|----------------|---------------- |
D|o----------------|----------------|----------------|----------------o|
A|o----------------|----------------|----------------|----------------o|
E| ----------------|----------------|----------------|---------------- | 

G|----------------|--2---2-----0---|
D|----2-----3---3-|----------------|
A|3---------------|----------------| Toque
E|----------------|----------------| 5 vezes

G|----------------|--2---2-----0---|
D|----2-----3---3-|----------------|
A|3---------------|----------------| Toque
E|----------------|----------------| 23 vezes

G|----------------|----------------|----------------|----------------|
D|--------3-------|5-------3-------|--------3-------|5-------3-------|
A|3---------------|----------------|3---------------|------------5---|
E|----------------|----------------|----------------|----------------|

G|----------------|----------------|----------------|----------------|
D|--------3-------|5-------3-------|--------3-----5-|--5---5-3---3---|
A|3---------------|----------------|3---------------|----------------|
E|----------------|----------------|----------------|----------------|

G|----------------|----------------|----------------|----------------|
D|----------------|----------------|----------------|----------------|
A|3---------------|----------------|3---------------|----------------|
E|--------1-------|3-------1-------|--------1-------|3-----0-1---5---|

G|----------------|----------------|----------------|----------------||
D|----------------|----------------|----------------|----------------||
A|3---------------|----------------|3---------------|----------------||
E|--------1-------|3-----0-1-------|--------1-------|3---------------||

  12/8 tempo
G|------------------------|------------------------|------------------------|
D|--------2---3-----7---5-|(5)---------------------|--------2---3-----7---5-|
A|3---5-------------------|--------------------0-2-|3---5-------------------|
E|------------------------|----3-------------3-----|------------------------|

G|------------------------|------------------------|------------------------|
D|(5)---------------------|--------2---3-----7---5-|(5)---------------------|
A|--------------------0-2-|3---5-------------------|------------------------|
E|------------------3-----|------------------------|----3-------------------|

G|------------------------|------------------------|------------------------|
D|--------2---3-----------|------------------------|--------2---3-----7---5-|
A|3---5-------------------|--------------------0-2-|3---5-------------------|
E|------------------1---3-|(3)---------------------|------------------------|

G|------------------------|------------------------|------------------------|
D|(5)---------------------|--------2---3-----3---5-|(5)---------------------|
A|------------------------|3---5-------------------|------------------------|
E|----3-------------------|------------------------|------------------------|

G|------------------------|------------------------|------------------------|
D|--------2---3-----7---5-|(5)---------------------|--------2---3-----3---5-|
A|3---5-------------------|--------------------0-2-|3---5-------------------|
E|------------------------|----3-------------3-----|------------------------|

G|------------------------|------------------------|------------------------|
D|(5)---------------------|--------2---3-----7---5-|(5)---------------------|
A|------------------------|3---5-------------------|------------------------|
E|------------------------|------------------------|----3-------------------|

G|------------------------|------------------------|------------------------|
D|--------2---3-----3---5-|(5)---------------------|--------2---3-----7---5-|
A|3---5-------------------|--------------------0-2-|3---5-------------------|
E|------------------------|------------------3-----|------------------------|

G|------------------------|------------------------|------------------------|
D|(5)---------------------|--------2---3-----3---5-|(5)---------------------|
A|------------------------|3---5-------------------|------------------------|
E|----3-----------------3-|------------------------|------------------------|

G|------------------------|------------------------|------------------------|
D|--------2---3-----7---5-|(5)---------------------|--------2---3-----3-2-0-|
A|3---5-------------------|------------------------|3---5-------------------|
E|------------------------|----3-----------------3-|------------------------|

G|------------------------|------------------------|------------------------|
D|--------2---3-----7---5-|(5)---------------------|--------2---3-----------|
A|3---5-------------------|------------------------|3---5-------------------|
E|------------------------|----3-------------------|------------------1---3-|

G|------------------------|------------------------|------------------------|
D|------------------------|--------2---3-----7---5-|(5)---------------------|
A|----------------0-3-3-0-|3---5-------------------|------------------------|
E|(3)---------------------|------------------------|----3-------------------|

G|------------------------|------------------------|------------------------|
D|--------2---3-----3---5-|(5)---------------------|--------2---3-----7---5-|
A|3---5-------------------|------------------------|3---5-------------------|
E|------------------------|------------------------|------------------------|

                                                                D.S. al Coda
G|------------------------|------------------------|------------------------||
D|(5)---------------------|--------2---3-----3---5-|(5)---------------------||
A|------------------------|3---5-------------------|--------------------0-2-||
E|----3-------------------|------------------------|------------------------||

  CODA
G|----------------2---4-5-|4---2-0-----2---0-------|
D|----2---5---3-----------|--------3-2-------3-2-0-|
A|3-----------------------|------------------------| Toque
E|------------------------|------------------------| 11 vezes

G|------------------------|------------------------||
D|----2---5---3-----------|------------------------||
A|3-----------------------|------------------------||
E|------------------1---3-|(3)---------------------||
	  

Search Paypal
auto scroll beats size up size down change color hide chords drawings
tab show chords e-chords YouTube Clip e-chords hide all tabs e-chords go to top tab