Kreator

Endorama

Kreator

bass

by  VELHO

save to print version add songbook text version e-mail correct tuner
chordsukulelecavacokeyboardtabbassdrumsharmonicaflute Guitar Pro
close

there isn't a video lesson for this song

chords

Endorama

	  		tune down 

F||----------------------|----------------------|----------------------| 
C||----------------------|----------------------|----------------------| 
G||----------------------|----------------------|----------------------| 
D||--0----0----0----0----|--0----0----0----0----|--0----0----0----0----| 
                                                                      
----------------------|----------------------|----------------------| 
----------------------|----------------------|----------------------| 
----------------------|----------------------|----------------------| 
--0----0----0----0----|--0----0----0----0----|--0----0----0----0----| 
                                                          
----------------------|----------------------|----------------------| 
----------------------|----------------------|----------------------| 
----------------------|----------------------|----------------------| 
--0----0----0----0----|--0----0----0----0----|--0----0----0----0----| 
                                                                      
----------------------|----------------------|----------------------| 
----------------------|----------------------|----------------------| 
----------------------|----------------------|----------------------| 
--0----0----0----0----|--0----0----0----0----|--0----0----0----0----| 
                                                                      
----------------------|----------------------|----------------------| 
----------------------|----------------------|----------------------| 
----------------------|----------------------|----------------------| 
--0----0----0----0----|--0----0----0----0----|--0----0----0----0----| 
                                                         
----------------------|----------------------|----------------------| 
----------------------|----------------------|----------------------| 
----------------------|----------------------|----------------------| 
--0----0----0----0----|--0----0----0----0----|--0----0----0----0----| 
                                                               
----------------------|----------------------|----------------------| 
----------------------|----------------------|----------------------| 
----------------------|----------------------|----------------------| 
--0----0----0----0----|--0----0----0----0----|--0----0----0----0----| 
                                                             
----------------------|----------------------|----------------------| 
----------------------|----------------------|----------------------| 
----------------------|----------------------|----------------------| 
--0----0----0----0----|--0----0----0----0----|--0----0----0----0----| 
                                                      
-------------------|--------------------|-------------------| 
-------------------|--------------------|-------------------| 
-------------------|----------2----0----|-------------------| 
--0----------------|--------------------|--3----------------| 
                                                               
--------------------|-------------------|--------------------| 
--------------------|-------------------|--------------------| 
--------------------|-------------------|--------------------| 
----------5----3----|--5----------------|----------3----5----| 
                                                    
-------------------|-------------------|-------------------| 
-------------------|-------------------|-------------------| 
-------------------|--------------5----|-------------------| 
--0----------------|-------------------|--0----------------| 
                                                               
--------------------|-------------------|--------------------| 
--------------------|-------------------|--------------------| 
----------2----0----|-------------------|--------------------| 
--------------------|--3----------------|----------5----3----| 
                                                                                 
-------------------|--------------------|-------------------|------------------| 
-------------------|--------------------|-------------------|------------------| 
-------------------|--------------------|-------------------|------------------| 
--5----------------|----------3----5----|--0----------------|------------------| 
                                                       
--------------------------|--------------------------| 
--------------------------|--------------------------| 
--------------------------|--------------------------| 
--0--0--0--0--0--0--0--0--|--1--1--1--1--1--1--1--1--| 
                                                       
--------------------------|--------------------------| 
--------------------------|--------------------------| 
--------------------------|--------------------------| 
--0--0--0--0--0--0--0--0--|--1--1--1--1--1--1--3--3--| 
                                                 
--------------------------|--------------------------| 
--------------------------|--------------------------| 
--------------------------|--------------------------| 
--0--0--0--0--0--0--0--0--|--1--1--1--1--1--1--1--1--| 
                                                       
--------------------------|--------------------------| 
--------------------------|--------------------------| 
--------------------------|--------------------------| 
--0--0--0--0--0--0--0--0--|--1--1--1--1--1--1--3--3--| 
                                                 
--------------------------|--------------------------| 
--------------------------|--------------------------| 
--------------------------|--------------------------| 
--0--0--0--0--0--0--0--0--|--1--1--1--1--1--1--1--1--| 
                                                       
--------------------------|--------------------------| 
--------------------------|--------------------------| 
--------------------------|--------------------------| 
--0--0--0--0--0--0--0--0--|--1--1--1--1--1--1--3--3--| 
                                                   
--------------------------|--------------------------| 
--------------------------|--------------------------| 
--------------------------|--------------------------| 
--0--0--0--0--0--0--0--0--|--1--1--1--1--1--1--1--1--| 
                                                                       
--------------------------|--------------------------|-------------------| 
--------------------------|--------------------------|-------------------| 
--------------------------|--------------------------|-------------------| 
--0--0--0--0--0--0--0--0--|--1--1--1--1--1--1--1--1--|--0----------------| 
                                                               
--------------------|-------------------|--------------------| 
--------------------|-------------------|--------------------| 
----------2----0----|-------------------|--------------------| 
--------------------|--3----------------|----------5----3----| 
                                                              
-------------------|--------------------|-------------------| 
-------------------|--------------------|-------------------| 
-------------------|--------------------|-------------------| 
--5----------------|----------3----5----|--0----------------| 
                                                      
-------------------|-------------------|--------------------| 
-------------------|-------------------|--------------------| 
--------------5----|-------------------|----------2----0----| 
-------------------|--0----------------|--------------------| 
                                                         
-------------------|--------------------|-------------------| 
-------------------|--------------------|-------------------| 
-------------------|--------------------|-------------------| 
--3----------------|----------5----3----|--5----------------| 
                                                             
--------------------|-------------------|------------------| 
--------------------|-------------------|------------------| 
--------------------|-------------------|------------------| 
----------3----5----|--0----------------|------------------| 
                                                       
--------------------------|--------------------------| 
--------------------------|--------------------------| 
--------------------------|--------------------------| 
--1--1--1--1--1--1--1--1--|--1--1--1--1--1--1--1--1--| 
                                                       
--------------------------|--------------------------| 
--------------------------|--------------------------| 
--------------------------|--------------------------| 
--0--0--0--0--0--0--0--0--|--0--0--0--0--0--0--0--0--| 
                                                       
--------------------------|--------------------------| 
--------------------------|--------------------------| 
--------------------------|--------------------------| 
--3--3--3--3--3--3--3--3--|--3--3--3--3--3--3--3--3--| 
                                                       
--------------------------|--------------------------| 
--------------------------|--------------------------| 
--------------------------|--------------------------| 
--1--1--1--1--1--1--1--1--|--1--1--1--1--1--1--1--1--| 
                                                       
--------------------------|--------------------------| 
--------------------------|--------------------------| 
--------------------------|--------------------------| 
--5--5--5--5--5--5--5--5--|--5--5--5--5--5--5--5--5--| 
                                                       
--------------------------|--------------------------| 
--------------------------|--------------------------| 
--------------------------|--------------------------| 
--3--3--3--3--3--3--3--3--|--3--3--3--3--3--3--3--3--| 
                                                       
--------------------------|--------------------------| 
--------------------------|--------------------------| 
--2--2--2--2--2--2--2--2--|--2--2--2--2--2--2--2--2--| 
--------------------------|--------------------------| 
                                                       
--------------------------|--------------------------| 
--------------------------|--------------------------| 
--------------------------|--------------------------| 
--5--5--5--5--5--5--5--5--|--5--5--5--5--5--5--5--5--| 
                                                       
--------------------------|--------------------------| 
--------------------------|--------------------------| 
--------------------------|--------------------------| 
--1--1--1--1--1--1--1--1--|--1--1--1--1--1--1--1--1--| 
                                                   
--------------------------|--------------------------| 
--------------------------|--------------------------| 
--------------------------|--------------------------| 
--0--0--0--0--0--0--0--0--|--0--0--0--0--0--0--0--0--| 
                                                    
--------------------------|--------------------------| 
--------------------------|--------------------------| 
--------------------------|--------------------------| 
--3--3--3--3--3--3--3--3--|--3--3--3--3--3--3--3--3--| 
                                                     
--------------------------|--------------------------| 
--------------------------|--------------------------| 
--------------------------|--------------------------| 
--1--1--1--1--1--1--1--1--|--1--1--1--1--1--1--1--1--| 
                                                       
--------------------------|--------------------------| 
--------------------------|--------------------------| 
--------------------------|--------------------------| 
--5--5--5--5--5--5--5--5--|--5--5--5--5--5--5--5--5--| 
                                                       
--------------------------|--------------------------| 
--------------------------|--------------------------| 
--------------------------|--------------------------| 
--3--3--3--3--3--3--3--3--|--3--3--3--3--3--3--3--3--| 
                                                       
--------------------------|--------------------------| 
--------------------------|--------------------------| 
--2--2--2--2--2--2--2--2--|--2--2--2--2--2--2--2--2--| 
--------------------------|--------------------------| 
                                                                              
--------------------------|--------------------------|----------------------| 
--------------------------|--------------------------|----------------------| 
--------------------------|--------------------------|----------------------| 
--5--5--5--5--5--5--5--5--|--5--5--5--5--5--5--5--5--|--0----0----0----0----| 
                                                                      
----------------------|----------------------|----------------------| 
----------------------|----------------------|----------------------| 
----------------------|----------------------|----------------------| 
--0----0----0----0----|--0----0----0----0----|--0----0----0----0----| 
                                                                      
----------------------|----------------------|----------------------| 
----------------------|----------------------|----------------------| 
----------------------|----------------------|----------------------| 
--0----0----0----0----|--0----0----0----0----|--0----0----0----0----| 
                                                                 
----------------------|----------------------|----------------------| 
----------------------|----------------------|----------------------| 
----------------------|----------------------|----------------------| 
--0----0----0----0----|--0----0----0----0----|--0----0----0----0----| 
                                                                      
----------------------|----------------------|----------------------| 
----------------------|----------------------|----------------------| 
----------------------|----------------------|----------------------| 
--0----0----0----0----|--0----0----0----0----|--0----0----0----0----| 
                                                                      
----------------------|----------------------|----------------------| 
----------------------|----------------------|----------------------| 
----------------------|----------------------|----------------------| 
--0----0----0----0----|--0----0----0----0----|--0----0----0----0----| 
                                                           
-------------------|--------------------|-------------------| 
-------------------|--------------------|-------------------| 
-------------------|----------2----0----|-------------------| 
--0----------------|--------------------|--3----------------| 
                                                               
--------------------|-------------------|--------------------| 
--------------------|-------------------|--------------------| 
--------------------|-------------------|--------------------| 
----------5----3----|--5----------------|----------3----5----| 
                                                             
-------------------|-------------------|-------------------| 
-------------------|-------------------|-------------------| 
-------------------|--------------5----|-------------------| 
--0----------------|-------------------|--0----------------| 
                                                           
--------------------|-------------------|--------------------| 
--------------------|-------------------|--------------------| 
----------2----0----|-------------------|--------------------| 
--------------------|--3----------------|----------5----3----| 
                                                                                 
-------------------|--------------------|-------------------|------------------| 
-------------------|--------------------|-------------------|------------------| 
-------------------|--------------------|-------------------|------------------| 
--5----------------|----------3----5----|--0----------------|------------------| 
                                                         
-------------------|--------------------|-------------------| 
-------------------|--------------------|-------------------| 
-------------------|----------4----2----|--0----------------| 
--2----------------|--------------------|-------------------| 
                                                               
--------------------|-------------------|--------------------| 
--------------------|-------------------|--------------------| 
----------2----0----|--2----------------|----------0----2----| 
--------------------|-------------------|--------------------| 
                                                             
-------------------|-------------------|-------------------| 
-------------------|-------------------|-------------------| 
-------------------|-------------------|-------------------| 
--2----------------|--------------0----|--2----------------| 
                                                             
--------------------|-------------------|--------------------| 
--------------------|-------------------|--------------------| 
----------4----2----|--0----------------|----------2----0----| 
--------------------|-------------------|--------------------| 
                                                                    
-------------------|--------------------|-------------------|------|| 
-------------------|--------------------|-------------------|------|| 
--2----------------|----------0----2----|-------------------|------|| 
-------------------|--------------------|--2----------------|------|| 
		  

See also:

bass Kreator - Coma Of Souls bass Kreator - PEOPLE OF THE LIE bass Kreator - Rippin' Corpse bass Kreator - Bone Breaker bass Kreator - Command Of The Blade bass Kreator - Pleasure To Kill
e-chords

Other versions:

bass Kreator - Endorama
auto scroll beats size up size down change color hide chords drawings
tab show chords e-chords YouTube Clip e-chords hide all tabs e-chords go to top tab

share