Kreator

Servant in Heaven / King in Hell

Kreator

bass Beginner beginner

by  EDUARDO_LYVIO

save to print version add songbook text version e-mail correct tuner
chordsukulelecavacokeyboardtabbassdrumsharmonicaflute Guitar Pro
close

there isn't a video lesson for this song

chords

Servant in Heaven / King in Hell

Year: 2001 - Album: Live Kreation

	  		Drop-D tuning 
 
 ||----|| 
*||----||*  <= repeat 
*||----||* 
 ||----|| 
 
 
Base theme-intro 
 
G ||-------------------------------- 
 D*||--------------------------------  
 A*||5---5557--8--7--5---5557--8--7--  
D ||-------------------------------- 
 
  G -------------------------------- 
  D -------3--2--0---------3--2--0-- 
  A 1---111---------1---111--------- 
  D -------------------------------- 
 
  G -------------------------------- 
  D ----------3--5------------3--5-- 
  A 3---3337--------3---3337-------- 
  D -------------------------------- 
 
  G --------------------------------|| 
  D --------------------------------||* 
  A --------------------------------||* 
  D 5---5555--5--8--8--8--10-10-10--|| 
 
 

		  

See also:

bass Kreator - Total Death bass Kreator - Bone Breaker bass Kreator - PEOPLE OF THE LIE bass Kreator - Pleasure To Kill bass Kreator - Coma Of Souls bass Kreator - Mental Slavery
e-chords

Other versions:

bass Kreator - Servant in Heaven / King in Hell
auto scroll beats size up size down change color hide chords drawings
tab show chords e-chords YouTube Clip e-chords hide all tabs e-chords go to top tab

share