Jaco Pastorius

Continuum

Jaco Pastorius

bass

by  DIEGOBASS

save to print version add songbook text version e-mail correct tuner
chordsukulelecavacokeyboardtabbassdrumsharmonicaflute Guitar Pro
close

there isn't a video lesson for this song

chords

Continuum

	  		 
G------<4>---4----4-4/6----4---4-6/8---------4---4--6--9/11--9--4/6------ 
D------<4>-----4-------------4-----------------4------------------------- 
A------<4>----------------------------------------------------------0-0-- 
E--0-0-----0------------0-0----------0-0-7-0----------------------------- 
 
G-------------4---4-4/6------6/8---4---4-6/8------6----4---4---6--9/11-9-- 
D---------------4----------6---------4----------6--------4---------------- 
A--0-4-6-7----------------------6-------------------4--------------------- 
E----------0-------------0--------0-----------0-------0------------------- 
 
G--11/13---13-12----8-9-11---13-14-16----16--------9-11--------13-----------12----- 
D----------------------------------------16h18p16-------11--------11-10--11----10-- 
A--------13------12---------------------------------------------------------------- 
E--------------------------0--------------------------------11--------------------- 
 
G---------------------------------------------4---4-4/6---8-8--4---4-6/8------ 
D--6-7-9----7-6---------------------------------4----------------4------------ 
A--------0------9---7/9-7/9------10------11------------------------------6---- 
E---------------------------10-7----11-8----0-----------0---0--------------0-- 
 
G------6-----4---4-6--9/11-9---4/6-----6-------------4---4-4/6----16----16--16/18-- 
D----6---------4---------------------------------------4-------------16------------ 
A--------4-------------------------0-0------4-6-7---------------------------------- 
E--0-------0--------------------------------------0------------0------------------- 
 
G--4---4--6/8---16----16--18/20---4---4-6--9/11-9--11/13---13-12---- 
D----4-------------16---------------4------------------------------- 
A-------------------------------------------------------13------12-- 
E------------------------------------------------------------------- 
 
G--8-9-11---13-14-16----16--------9-11-------13-----------12----------------- 
D-----------------------16h18p16-------11-------11-10--11----10-6-7-9--7-6--- 
A--------------------------------------------------------------------------9- 
E-----------------------------------------11--------------------------------- 
 
G----------------------------------------4/6------------------ 
D----------------------------------4/6-4-------6-4-1h2p1------ 
A--7/9-------10-------11-------------------------------------- 
E-------10-7-----11-8----------------------------------------- 
               Trill 
G-------------8^(9)---------------------------------------------------- 
D-----------9---------11-9-8-------------------------9/11------14/16--- 
A-------7-9------------------9-11------------9--9/11---------0--------- 
E--0--7-----------------------------7--7-9-0--------------------------- 
 
G------------------------14/16--18/20---18-16-15----------------------13--- 
D--14-16-11-13----16/18--------------------------16---------------11------- 
A---------------------------------------------------16---------9----------- 
E--------------------------------------------------------0--7-------------- 
 
G--20-16-15h16p15--------------------------13------------------------ 
D-----------------18-13-----------13----------16-14-13-11-10--------- 
A-----------------------14-16--------14-16-------------------11-8---- 
E------------------------------0----------------------------------9-- 
 
G------------------------------12-9--------------7------------------ 
D------------------10----13-10------10-9-------9---9-10------9------ 
A----10---8---11-8----11-----------------12-------------7-10---11--- 
E--8----6---9------------------------------------------------------- 
 
G-------------------------11-13--18-15-/13\11\10\9---10---13-17-17/18-- 
D----9h11-----------10-13--------------/13\11\10\9-0---------17-------- 
A---------9------11---------------------------------------------------- 
E--0------------------------------------------------------------------- 
 
G--13-11-------13-------------16-14----19-16------------------------ 
D--------14-13----13/15-13-------------------19-17-16-------16------ 
A--------------------------15-------------------------19-18----16--- 
E------------------------------------------------------------------- 
 
G--------------------------9/11----------------------------------------- 
D------------------------9-9/11---13-11----------13----11--------------- 
A-----9/11------7-/11-11----------------14-11-------14------------11---- 
E--0-------9-9--------------------------------14----------12-11-9----8-- 
 
G------------6---------------6---------8-6-------6---------------------------- 
D--------6-9---9-6---9-6-------9-6---------9-6-----9-6-----9-6---------6------ 
A------7-----------7-----7---------9-7---------9-------9-7-----9-7-------7-9-- 
E--7-9---------------------9---------------------------------------9-7-------- 
 
G--------6-------------------6---------8-------9-------11-/16-------- 
D--6-------9-7-6-------6-------9-7---6-------7-------9--------13----- 
A----7-9---------0-9-----7-9-------------------------------------16-- 
E----------------------------------7-------7-------9----------------- 
 
G--------------------------13-------------------------------------------- 
D--13----------------13-16----13-16-------------13-14-13-------13-11----- 
A-----14-13----14-16----------------16-------11----------11-14-------14-- 
E-----------16---------------------------0-0----------------------------- 
                        |..w/octave pedal (one octave lower)................ 
G-----------------------6--------8-----------------12-/17\16\14-/12\11-- 
D------4------------6-----6/8-8----8/10---11-13-14---------------------- 
A--6-4---6-7------------------------------------------------------------ 
E------------0-2-4------------------------------------------------------ 
 .......................................................................... 
G---------------------------------11--15\13-12--17-14p12-------------9----- 
D--13------11-------------9-11/13------------------------14-12-/10-9---11-- 
A----13-11----14-------11-------------------------------------------------- 
E----------------12-------------------------------------------------------- 
 .............................................................. 
G----------------16-11-------------------------------------------- 
D--------9-10-12-------11----------------14-13----16-16/18\16----- 
A--11-12------------------11--9-11-12/14-------13-------------16-- 
E----------------------------------------------------------------- 
 ...|           Loud 
 
G--8-------------------------------------------------11------/16----- 
D-------------------------------------6-6-9-9--11/13----11----------- 
A----7--7\--------------------7-7-9-9-----------------------------0-- 
E---------------0-0---7-7-9-9---------------------------------------- 
 
G--16--------------------------------16-----------------------16-------------- 
D-----16--9-11--------------------------16----------16-----------16-16-------- 
A--------------9-11------------------------14-16--------16-------------16-16-- 
E-------------------9-11-0---7-0-0---------------14--------16----------------- 
 
G------18----------------18-----------------------20----------18------------------- 
D---------18-------18-------18-16-------16-----------20-18-16----20-18-16-18-16\15- 
A------------18-18----18----------19-18----16-------------------------------------- 
E--7------------------------------------------0------------------------------------ 
 
G---------/17--18-20-\16--8-9-11---17-18-20----16--------9-11---------- 
D---------/17--------\16-----------------------16h18p16-------9-------- 
A--16-18-----------------------------------------------------------13-- 
E--------------------------------0------------------------------11----- 
 
G--13--11-10---------------------------------------------------------- 
D------------13-10--------------9/11--9----------------7-------5------ 
A------------------11----0--------------12-11--9-7-------10----------- 
E---------------------10---1-----------------------10-------8----8-7-- 
 
G--4---4-4/6-------8-------4---4-6/8-------6-----4---4--6--9/11-9--4/6-- 
D----4-----------6-----------4-----------6---------4-------------------- 
A--------------------6-----------------------4-------------------------- 
E--------------0-------0---------------0-------0------------------------ 
 
G-----4/6-4------------------------------------4---4-4/6-----16----16-16/18------- 
D-----------6-4---4---6\4------------------------4--------------16---------------- 
A--0----------------4------6/7\6/7\6/7\6/7---------------------------------------- 
E------------------------------------------0-------------0-0-----------------0-0-- 
 
G--4---4-6/8-----16----16-18/20------4---4--6--9/11-9-11/13---13-12---- 
D----4--------------16-----------------4------------------------------- 
A----------------------------------------------------------13------12-- 
E------------0-0----------------0-0------------------------------------ 
 
G--8-9-11---13-14-16? 
D--------------------- 
A--------------------- 
E---------0----------- 
 
 

		  

See also:

bass Esperanza Spalding - I Know You Know bass Jaco Pastorius - Blackbird bass Jaco Pastorius - Cha cha bass Jaco Pastorius - Portrait of tracy bass Herbie Hancock - Cantaloupe Island bass Jaco Pastorius - Opus pocus
e-chords

Other versions:

bass Jaco Pastorius - Continuum
auto scroll beats size up size down change color hide chords drawings
tab show chords e-chords YouTube Clip e-chords hide all tabs e-chords go to top tab

share