Jaco Pastorius

home > Jaco Pastorius

Chromatic fantasy Bass Tab

Jaco Pastorius

Difficulty: nolevelnolevel

by diegobass

tuner correct add songbook print version text version save to e-mail
chordsukulelecavacokeyboardtabbassdrumsharmonicsflute Guitar Pro
chords

Chromatic fantasy

  		 
G|--------------6-7-5--------------|------------------9--9----9----9------| 
D|--------5-7-9-------8-7-5--------|-------------7-8--8----8----8----8----| 
A|--5-7-8-------------------8-7-5--|------7-8-10------0------0----0----0--| 
E|---------------------------------|-9-10---------------------------------| 
 
G|-------------------12----------------------------|-------------------- 
D|----------12-14-15----15-14-12-------------------|-------------11-12-- 
A|-12-14-16----------------------16-13-12----------|----------12-------- 
E|----------------------------------------15-13-12-|-10-12-13----------- 
 
G--10-----------------|-----------------12-------14-------15-| 
D---0-----------------|--------12----12-------12-------12----| 
A--12-----------------|-----12----------------------10-------| 
E---------10-10-10----|--10-------12-------13----------------|    
 
G|----------12-15-12-------------------|----10-------12-------14-------15-| 
D|----11-14----------14-11-------------|----------------------------------| 
A|-12----------------------12----------|-------12-------12-------12-------| 
E|----------------------------15-13-12-|-10-------12-------13-------15----| 
 
G|-----------------------------------|-------------15-------|---------- 
D|-12-11-------------------------11--|-14-12-14-15----15----|----12-14- 
A|-------13-10------0------10-13-----|----------------------|-15------- 
E|-------------12-9---9-12-----------|-------------------15-|---------- 
 
G-14-------|----------12--------|-----------10--------|-------20-------19- 
D----14----|----11-12----12-----|--------11----12-----|-17-20----15-19---- 
A----------|-13-----------------|--12-14--------------|------------------- 
E-------13-|----------------12--|-----------------10--|------------------- 
 
G-------18-------19--|-------15-------14-------15-------14-| 
D-14-17----15-19-----|-12-15----11-14----12-15----11-14----| 
A--------------------|-------------------------------------| 
E--------------------|-------------------------------------| 
 
G|-------15-13----------------13-16----------14-----------| 
D|-12-15-------15-12----12-15-------------14----16-13-----| 
A|-------------------14-------------17-15-------------15--| 
E|--------------------------------------------------------| 
 
G|----------11-14------9-12-10-9----------16----------------9-| 
D|----10-13-------8-11-----------12----12----15-12-11----11---| 
A|-12-------------------------------11----------------12------| 
E|------------------------------------------------------------| 
 
G|-10----------9-10-------------10-8-------------8-11-| 
D|----------11------12-------10------10-7---7-10------| 
A|----11-12------------11-12--------------9-----------| 
E|----------------------------------------------------| 
 
G|-------9-7-----------6-9-------7-5---------5-------| 
D|-7-6-9-----8-5---5-8-----5-4-7-----7-----5---5-----| 
A|---------------7---------------------8-7-------6-5-| 
E|---------------------------------------------------| 
 
G|---6-9-6---------------3-----------2-----------0---| 
D|-8-------8-5---------3---6-3-----2---4-1-----0---2-| 
A|-------------8-7-4-5---------5-4---------3-2-------| 
E|---------------------------------------------------| 
 
G|--------------------------------5---5-8------9----9-12-9-12- 
D|------0-3-0---------------5---5---5-----8-11---11----------- 
A|-1-0--------0---3-5-6-5-6---6------------------------------- 
E|--------------4--------------------------------------------- 
 
G|-15----15-18----------12---------------15-14-12----- 
D|----17-------------------15-14-0-11-14-------------- 
A|--------------0-13-16---------------------------0--- 
E|---------------------------------------------------- 
 
G|-------12---------------15-14-12-------------------- 
D|----------15-14-0-11-14-------------------12-14-15-- 
A|-13-16----------------------------0-13-16----------- 
E|----------------------------------------------------- 
 
G|--------------12-14------------------------------------ 
D|-----12-14-15-------15-14-12------------------------11- 
A|--13-------------------------13-12-------7-5---0-10---- 
E|-----------------------------------15-13-----6--------- 
 
G|-9---------------------------------9------------------------- 
D|---12-11------------------------11---12-11------------------- 
A|--------------10-13-12-10--0-10------------------10-13-12-10- 
E|---------9-12-------------------------------9-12------------- 
 
G|----------------------6-7-----6----------------------13-14-16- 
D|------------7-0---6-7-------7---12-14-15----12-14-15---------- 
A|-0---7-8-10-----8---------8--------------13------------------- 
E|---9---------------------------------------------------------- 
 
G|-13-14-16---------------------------------------------- 
D|----------12-14-15-------12---------------------------- 
A|-------------------14-15----11-12-14------------------- 
E|-------------------------------------10-12-13--7-8-10-- 
 
G|----------------------------------------------------- 
D|----------11-12-11-14-12-11-------------------------- 
A|-11-12-14-------------------14-12-10----------------- 
E|-------------------------------------13-12-10--9-12-- 
 
G|-10-7------------------------------------------7-6-------- 
D|------8-7---------------------------8-7------------8-7-5-- 
A|----------10-8-7------7-8-10-8-7--------10-8-7------------ 
E|-----------------10-9------------10----------------------- 
 
G|-10-9-7-----13----------13-14------------------------------- 
D|--------10-----14-11-14-------14-11-14-11----11------------- 
A|------------------------------------------12----12----12---- 
E|---------------------------------------------------12----12- 
 
G|--------------13tr14----13--14--19--18--16--11--| 
D|---------------------16-----14--16--14--13--12--| 
A|--------0---0---------------0---0---0---0---0---| 
E|-9-12-9---9-------------------------------------| 
 
 
 
 

	  

Search Paypal
auto scroll beats size up size down change color hide chords drawings
tab show chords e-chords YouTube Clip e-chords hide all tabs e-chords go to top tab