Jaco Pastorius

Cut off

Jaco Pastorius

bass

by  DIEGOBASS

save to print version add songbook text version e-mail correct tuner
chordsukulelecavacokeyboardtabbassdrumsharmonicaflute Guitar Pro
close

there isn't a video lesson for this song

chords

Cut off

	  		 
 |               |               |               |                 
|------------------------------------------------2-0-------------| 
|------------------------------------------------------2---0-----| 
|----------------------------------------------------------------| 
|----------------------------------------------------------------| 
 
 |               |               |               |                 
|------------------------------------------------2-0-------------| 
|----0-----0---------0-0---------------------0---------2---0-----| 
|----------------------------------------------------------------| 
|----------------------------------------------------------------| 
 
 |               |               |               |                 
|------------------------------------------------2-0-------------| 
|--0-------0---------0-0---------------------0---------2---0-----| 
|----------------------------------------------------------------| 
|----------------------------------------------------------------| 
 
 |               |               |               |                 
|------------------------------------------------2-0-------------| 
|--0-------0-------0---0---------------------0---------2---0-----| 
|----------------------------------------------------------------| 
|----------------------------------------------------------------| 
 
 |               |               |               |                 
|------------------------------------------------2-0-------------| 
|----0-----0---------2-0---------------------0---------2-----0---| 
|----------------------------------------------------------------| 
|----------------------------------------------------------------| 
 
 |               |               |               |                 
|------------------------------------------------2-0-------------| 
|----0-------0-----0-----0-------------------0---------2---0-----| 
|----------------------------------------------------------------| 
|----------------------------------------------------------------| 
 
 |               |               |               |                 
|------------------------------------------------2-0-------------| 
|--0---------0-------2---0-------------------0---------2---0-----| 
|----------------------------------------------------------------| 
|----------------------------------------------------------------| 
 
 |               |               |               |                 
|------------------------------------------------2---0-----------| 
|--0-------0-------0---0---------------------0---------2---0-----| 
|----------------------------------------------------------------| 
|----------------------------------------------------------------| 
 
 |               |               |               |                 
|------------------------------------------------2-0-------------| 
|--0-------0---------2-0---------------------0---------2-----0---| 
|----------------------------------------------------------------| 
|----------------------------------------------------------------| 
 
 |               |               |               |                 
|------------------------------------------------2---0-----------| 
|----0-------0-------0---0-------------------0---------2-----0---| 
|----------------------------------------------------------------| 
|----------------------------------------------------------------| 
 
 |               |               |               |                 
|------------------------------------------------2-0-------------| 
|--0-------0---------2-0---------------------0---------2-----0---| 
|----------------------------------------------------------------| 
|----------------------------------------------------------------| 
 
 |               |               |               |                 
|------------------------------------------------2---0-----------| 
|--0-------0---------0-0---------------------0---------2---0-----| 
|----------------------------------------------------------------| 
|----------------------------------------------------------------| 
 
 |               |               |               |                 
|------------------------------------------------2---0-----------| 
|--0-------0-----2-------0-------------------0---------2---------| 
|--------------------3-------------------------------------4-----| 
|----------------------------------------------------------------| 
 
 |               |               |               |                 
|------------------------------------------------1---------------| 
|--------------------------------------------------4---1---------| 
|--4-------4---------4-4---------------------4-------------4-----| 
|----------------------------------------------------------------| 
 
 |               |               |               |                 
|------------------------------------------------1---------------| 
|--------------------------------------------------4---1---------| 
|--4---------4-------1-4---------------------4-------------4-----| 
|----------------------------------------------------------------| 
 
 |               |               |               |                 
|------------------------------------------------1---------------| 
|--------------------------------------------------4---1---------| 
|--4---------4-------4-4---------------------4---------------4---| 
|----------------------------------------------------------------| 
 
 |               |               |               |                 
|------------------------------------------------1---------------| 
|----------------1---------------------------------4---1-----0---| 
|--4-------4---------1-4-----4---------------4-------------------| 
|----------------------------------------------------------------| 
 
 |               |               |               |                 
|------------------------------------------------2-0-------------| 
|----0-------0-------0-0---------------------0---------2---0-----| 
|----------------------------------------------------------------| 
|----------------------------------------------------------------| 
 
 |               |               |               |                 
|------------------------------------------------2-0-------------| 
|----0-----0-------2---0---------------------0---------2---0-----| 
|----------------------------------------------------------------| 
|----------------------------------------------------------------| 
 
 |               |               |               |                 
|------------------------------------------------2-0-------------| 
|----0-------0-------0---0-------------------0---------2-----0---| 
|----------------------------------------------------------------| 
|----------------------------------------------------------------| 
 
 |               |               |               |                 
|------------------------------------------------2---0-----------| 
|--0---------0-------2-0---------------------0---------2-----0---| 
|----------------------------------------------------------------| 
|----------------------------------------------------------------| 
 
 |               |               |               |                 
|------------------------------------------------2---0-----------| 
|----0-------0-------0---0-------------------0---------2-----0---| 
|----------------------------------------------------------------| 
|----------------------------------------------------------------| 
 
 |               |               |               |                 
|------------------------------------------------2-0-------------| 
|--0-------0---------2-0---------------------0---------2-----0---| 
|----------------------------------------------------------------| 
|----------------------------------------------------------------| 
 
 |               |               |               |                 
|------------------------------------------------2---0-----------| 
|--0-------0---------0-0---------------------0---------2---0-----| 
|----------------------------------------------------------------| 
|----------------------------------------------------------------| 
 
 |               |               |               |                 
|------------------------------------------------2---0-----------| 
|--0-------0-----2-------0-------------------0---------2---------| 
|--------------------3-------------------------------------4-----| 
|----------------------------------------------------------------| 
 
 |               |               |               |                 
|------------------------------------------------1---------------| 
|--------------------------------------------------4---1---------| 
|--4-------4---------4-4---------------------4-------------4-----| 
|----------------------------------------------------------------| 
 
 |               |               |               |                 
|------------------------------------------------1---------------| 
|--------------------------------------------------4---1---------| 
|--4---------4-------1-4---------------------4-------------4-----| 
|----------------------------------------------------------------| 
 
 |               |               |               |                 
|------------------------------------------------1---------------| 
|--------------------------------------------------4---1---------| 
|--4---------4-------4-4---------------------4---------------4---| 
|----------------------------------------------------------------| 
 
 |               |               |               |                 
|------------------------------------------------1---------------| 
|----------------1---------------------------------4---1-----0---| 
|--4-------4---------1-4-----4---------------4-------------------| 
|----------------------------------------------------------------| 
 
 |               |               |               |                 
|----------------------------------------------------------------| 
|----------------------------------------------------------------| 
|1-------------------------------3---------------0---1---2-------| 
|----------------2-----------------------------------------------| 
 
 |               |               |               |                 
|----------------------------------------------------------------| 
|----------------------------------------------------------------| 
|----------------------------------------------------------------| 
|----------------------------------------------------------------| 
 
 |               |               |               |                 
|----------------------------------------------------------------| 
|0-------------------------------2-------------------0---1-------| 
|----------------1-------------------------------4---------------| 
|----------------------------------------------------------------| 
 
 |               |               |               |                 
|----------------------------------------------------------------| 
|----------------------------------------------------------------| 
|----------------------------------------------------------------| 
|----------------------------------------------------------------| 
 
 |               |               |               |                 
|--------------------------------3---------------2---------------| 
|4---------------0-----------------------------------------------| 
|----------------------------------------------------------------| 
|----------------------------------------------------------------| 
 
 |               |               |               |                 
|0---------------------------------------------------------------| 
|------------0---------------------------------------------------| 
|----------------------------------------------------------------| 
|------------------------3---------------------------------------| 
 
 |               |               |               |                 
|----------------------------------------------------------------| 
|----------------------------------------------------------------| 
|----------------------------------------------------------------| 
|----------------------------------------------------------------| 
 
 |               |               |               |                 
|----------------------------------------------------------------| 
|----------------------------------------------------------------| 
|----------------------------------------------------------------| 
|----------------------------------------------------------------| 
 
 |               |               |               |                 
|--------------------2-----9-------------------------------------| 
|0-----------0---0---------------------------------------2-------| 
|----------------------------------------0---------0---------0---| 
|----------------------------------------------------------------| 
 
 |               |               |               |                 
|--------------------2-------9-----------------------------------| 
|0-------0---0---0-----------------------------------------------| 
|----------------------------------------------------------------| 
|----------------------------------------------------------------| 
 
 |               |               |               |                 
|--------------------2-------9-----------------------------------| 
|0-----------0---0-------------------------------------2---------| 
|----------------------------------------0---0---------------0---| 
|----------------------------------------------------------------| 
 
 |               |               |               |                 
|------------------2-------9-------------------------------------| 
|0-----------0---0-----------------------------------------------| 
|----------------------------------------------------------------| 
|----------------------------------------------------------------| 
 
 |               |               |               |                 
|----------------------------5-----------------------------------| 
|------------------3---------------------------------------------| 
|1-----------1---1-------------------------------------3---------| 
|----------------------------------------1---------1-------1-----| 
 
 |               |               |               |                 
|----------------------------5-----------------------------------| 
|------------------3---------------------------------------------| 
|1-------1---1-1-------------------------------------------------| 
|------------------------------------------------------------1---| 
 
 |               |               |               |                 
|--------------------------5-------------------------------------| 
|--------------------3-------------------------------------------| 
|1---1-------1-------------------------------------------3-------| 
|----------------------------------------1---------1-------1-----| 
 
 |               |               |               |                 
|----------------------------5-----------------------------------| 
|--------------------3-------------------------------------------| 
|1-----------1---1-----------------------------------------------| 
|------------------------------------------------------1---------| 
 
 |               |               |               |                 
|----------------------------1-----------------------------------| 
|----------------------------------------------------------------| 
|--------------------4-------------------4---------4---------4---| 
|2-----------2-----------------------------------------4---------| 
 
 |               |               |               |                 
|--------------------------1-------------------------------------| 
|----------------------------------------------------------------| 
|--------------------4-------------------------------------------| 
|2-------2---2---------------------------------------------------| 
 
 |               |               |               |                 
|----------------------------1-----------------------------------| 
|----------------------------------------------------------------| 
|--------------------4-------------------4---------4---------4---| 
|2---2-------2-------------------------------------------4-------| 
 
 |               |               |               |                 
|----------------------------1-----------------------------------| 
|----------------------------------------------------------------| 
|--------------------4---------------------------------------4---| 
|2-----------2---2-----------------------------------------------| 
 
 |               |               |               |                 
|--------------------2-------9-----------------------------------| 
|0-----------0---0---------------------------------------2-------| 
|--------------------------------------0-------------0-------0---| 
|----------------------------------------------------------------| 
 
 |               |               |               |                 
|--------------------2-------9-----------------------------------| 
|0-------0---0---0---------------------------------------2-------| 
|--------------------------------------0-------------0-------0---| 
|----------------------------------------------------------------| 
 
 |               |               |               |                 
|--------------------2-------9-----------------------------------| 
|0-----------0---0---------------------------------------2-------| 
|--------------------------------------0-----0-------0-------0---| 
|----------------------------------------------------------------| 
 
 |               |               |               |                 
|--------------------2-------9-----------------------------------| 
|0-------0---0---0-------------------------------------------2---| 
|----------------------------------------0-----------0---0-------| 
|----------------------------------------------------------------| 
 
 |               |               |               |                 
|----------------------------5-----------------------------------| 
|--------------------3-------------------------------------------| 
|1-----------1---1---------------------------------------3-------| 
|--------------------------------------1-------------1-------1---| 
 
 |               |               |               |                 
|----------------------------5-----------------------------------| 
|--------------------3-------------------------------------------| 
|1-------1---1---1-------------------------------------------3---| 
|----------------------------------------------------1---1-------| 
 
 |               |               |               |                 
|----------------------------5-----------------------------------| 
|--------------------3-------------------------------------------| 
|1---1-------1-------------------------------------------3-------| 
|--------------------------------------1-------------1-------1---| 
 
 |               |               |               |                 
|----------------------------5-----------------------------------| 
|--------------------3-------------------------------------------| 
|1-----------1---1-----------------------------------------------| 
|----------------------------------------1---------------1-------| 
 
 |               |               |               |                 
|----------------------------1-----------------------------------| 
|----------------------------------------------------------------| 
|--------------------4-------------------4-----------4-------4---| 
|2---2-------2-------------------------------------------4-------| 
 
 |               |               |               |                 
|----------------------------1-----------------------------------| 
|----------------------------------------------------------------| 
|--------------------4-----------------------4-------4-------4---| 
|2-------2---2-------------------------------------------4-------| 
 
 |               |               |               |                 
|----------------------------1-----------------------------------| 
|----------------------------------------------------------------| 
|--------------------4-------------------4-----------4-------4---| 
|2---2-------2-------------------------------------------4-------| 
 
 |               |               |               |                 
|----------------------------1-------6---5---3-------------------| 
|------------------------------------------------4---3-----------| 
|--------------------4-----------------------------------4-------| 
|2-----------2---2-------------------------------------------4---| 
 
 |               |               |               |                 
|--------------------2-------9-----------------------------------| 
|0-----------0---0---------------------------------------2-------| 
|--------------------------------------0-------------0-------0---| 
|----------------------------------------------------------------| 
 
 |               |               |               |                 
|--------------------2-------9-----------------------------------| 
|0-------0---0---0---------------------------------------2-------| 
|--------------------------------------0-------------0-------0---| 
|----------------------------------------------------------------| 
 
 |               |               |               |                 
|--------------------2-------9-----------------------------------| 
|0-----------0---0---------------------------------------2-------| 
|--------------------------------------0-----0-------0-------0---| 
|----------------------------------------------------------------| 
 
 |               |               |               |                 
|--------------------2-------9-----------------------------------| 
|0-------0---0---0-------------------------------------------2---| 
|----------------------------------------0-----------0---0-------| 
|----------------------------------------------------------------| 
 
 |               |               |               |                 
|----------------------------5-----------------------------------| 
|--------------------3-------------------------------------------| 
|1-----------1---1---------------------------------------3-------| 
|--------------------------------------1-------------1-------1---| 
 
 |               |               |               |                 
|----------------------------5-----------------------------------| 
|--------------------3-------------------------------------------| 
|1-------1---1---1-------------------------------------------3---| 
|----------------------------------------------------1---1-------| 
 
 |               |               |               |                 
|----------------------------5-----------------------------------| 
|--------------------3-------------------------------------------| 
|1---1-------1-------------------------------------------3-------| 
|--------------------------------------1-------------1-------1---| 
 
 |               |               |               |                 
|----------------------------5-----------------------------------| 
|--------------------3-------------------------------------------| 
|1-----------1---1-----------------------------------------------| 
|----------------------------------------1---------------1-------| 
 
 |               |               |               |                 
|----------------------------1-----------------------------------| 
|----------------------------------------------------------------| 
|--------------------4-------------------4-----------4-------4---| 
|2---2-------2-------------------------------------------4-------| 
 
 |               |               |               |                 
|----------------------------1-----------------------------------| 
|----------------------------------------------------------------| 
|--------------------4-----------------------4-------4-------4---| 
|2-------2---2-------------------------------------------4-------| 
 
 |               |               |               |                 
|----------------------------1-----------------------------------| 
|----------------------------------------------------------------| 
|--------------------4-------------------4-----------4-------4---| 
|2---2-------2-------------------------------------------4-------| 
 
 |               |               |               |                 
|----------------------------1-------6---5---3-------------------| 
|------------------------------------------------4---3-----------| 
|--------------------4-----------------------------------4-------| 
|2-----------2---2-------------------------------------------4---| 
 
 |               |               |               |                 
|--------------------2-------9-----------------------------------| 
|0-----------0---0---------------------------------------2-------| 
|--------------------------------------0-------------0-------0---| 
|----------------------------------------------------------------| 
 
 |               |               |               |                 
|--------------------2-------9-----------------------------------| 
|0---0---0---0---0---------------------------------------2-------| 
|--------------------------------------0-----------0---------0---| 
|----------------------------------------------------------------| 
 
 |               |               |               |                 
|--------------------2-------9-----------------------------------| 
|0-----------0---0---------------------------------------2-------| 
|--------------------------------------0---0---------0-------0---| 
|----------------------------------------------------------------| 
 
 |               |               |               |                 
|--------------------2-------9-----------------------------------| 
|0-------0---0---0---------------------------------------2-------| 
|--------------------------------------0-------------0-------0---| 
|----------------------------------------------------------------| 
 
 |               |               |               |                 
|----------------------------5-----------------------------------| 
|--------------------3-------------------------------------------| 
|1-----------1-------------------------------------------3-------| 
|--------------------------------------1-------------1-------1---| 
 
 |               |               |               |                 
|----------------------------5-----------------------------------| 
|--------------------3-------------------------------------------| 
|1-------1---1---1-------------------------------------------3---| 
|----------------------------------------------------1---1-------| 
 
 |               |               |               |                 
|----------------------------5-----------------------------------| 
|--------------------3-------------------------------------------| 
|1---1-------1-------------------------------------------3-------| 
|--------------------------------------1-------------1-------1---| 
 
 |               |               |               |                 
|----------------------------5-----------------------------------| 
|--------------------3-------------------------------------------| 
|1---1-------1---1-----------------------------------------------| 
|--------------------------------------1-----------------1---1---| 
 
 |               |               |               |                 
|----------------------------1-----------------------------------| 
|----------------------------------------------------------------| 
|--------------------4-----------------4-------------4-----------| 
|2---2-------2-------------------------------------------4---2---| 
 
 |               |               |               |                 
|----------------------------1-----------------------------------| 
|----------------------------------------------------------------| 
|--------------------4---------------------4---------4-------4---| 
|--------2---2-------------------------------------------4-------| 
 
 |               |               |               |                 
|----------------------------1-----------------------------------| 
|----------------------------------------------------------------| 
|--------------------4-----------------4-------------4-----------| 
|2---2-------2-------------------------------------------4---2---| 
 
 |               |               |               |                 
|----------------------------1-------6---5---3---5---1-----------| 
|--------------------------------------------------------3-------| 
|--------------------4---------------------------------------4---| 
|------------2---2-----------------------------------------------| 
 
 |               |               |               |                 
|----------------------------------------------------------------| 
|----------------------------------------------------------------| 
|1-------------------------------3---------------0---1---2-------| 
|----------------2-----------------------------------------------| 
 
 |               |               |               |                 
|----------------------------------------------------------------| 
|----------------------------------------------------------------| 
|----------------------------------------------------------------| 
|----------------------------------------------------------------| 
 
 |               |               |               |                 
|----------------------------------------------------------------| 
|0-------------------------------2-------------------0---1-------| 
|----------------1-------------------------------4---------------| 
|----------------------------------------------------------------| 
 
 |               |               |               |                 
|----------------------------------------------------------------| 
|----------------------------------------------------------------| 
|----------------------------------------------------------------| 
|----------------------------------------------------------------| 
 
 |               |               |               |                 
|--------------------------------3---------------2---------------| 
|4---------------0-----------------------------------------------| 
|----------------------------------------------------------------| 
|----------------------------------------------------------------| 
 
 |               |               |               |                 
|0---------------------------------------------------------------| 
|------------0---------------------------------------------------| 
|----------------------------------------------------------------| 
|------------------------3---------------------------------------| 
 
 |               |               |               |                 
|----------------------------------------------------------------| 
|----------------------------------------------------------------| 
|----------------------------------------------------------------| 
|----------------------------------------------------------------| 
 
 |               |               |               |                 
|----------------------------------------------------------------| 
|----------------------------------------------------------------| 
|----------------------------------------------------------------| 
|----------------------------------------------------------------| 
 
 |               |               |               |                 
|--------------------2-----9-------------------------------------| 
|0-----------0---0---------------------------------------2-------| 
|----------------------------------------0---------0---------0---| 
|----------------------------------------------------------------| 
 
 |               |               |               |                 
|--------------------2-------9-----------------------------------| 
|0-------0---0---0-----------------------------------------------| 
|----------------------------------------------------------------| 
|----------------------------------------------------------------| 
 
 |               |               |               |                 
|--------------------2-------9-----------------------------------| 
|0-----------0---0-------------------------------------2---------| 
|----------------------------------------0---0---------------0---| 
|----------------------------------------------------------------| 
 
 |               |               |               |                 
|------------------2-------9-------------------------------------| 
|0-----------0---0-----------------------------------------------| 
|----------------------------------------------------------------| 
|----------------------------------------------------------------| 
 
 |               |               |               |                 
|----------------------------5-----------------------------------| 
|------------------3---------------------------------------------| 
|1-----------1---1-------------------------------------3---------| 
|----------------------------------------1---------1-------1-----| 
 
 |               |               |               |                 
|----------------------------5-----------------------------------| 
|------------------3---------------------------------------------| 
|1-------1---1-1-------------------------------------------------| 
|------------------------------------------------------------1---| 
 
 |               |               |               |                 
|--------------------------5-------------------------------------| 
|--------------------3-------------------------------------------| 
|1---1-------1-------------------------------------------3-------| 
|----------------------------------------1---------1-------1-----| 
 
 |               |               |               |                 
|----------------------------5-----------------------------------| 
|--------------------3-------------------------------------------| 
|1-----------1---1-----------------------------------------------| 
|------------------------------------------------------1---------| 
 
 |               |               |               |                 
|----------------------------1-----------------------------------| 
|----------------------------------------------------------------| 
|--------------------4-------------------4---------4---------4---| 
|2-----------2-----------------------------------------4---------| 
 
 |               |               |               |                 
|--------------------------1-------------------------------------| 
|----------------------------------------------------------------| 
|--------------------4-------------------------------------------| 
|2-------2---2---------------------------------------------------| 
 
 |               |               |               |                 
|----------------------------1-----------------------------------| 
|----------------------------------------------------------------| 
|--------------------4-------------------4---------4---------4---| 
|2---2-------2-------------------------------------------4-------| 
 
 |               |               |               |                 
|----------------------------1-----------------------------------| 
|----------------------------------------------------------------| 
|--------------------4---------------------------------------4---| 
|2-----------2---2-----------------------------------------------| 
 
 |               |               |               |                 
|--------------------2-------9-----------------------------------| 
|0-----------0---0---------------------------------------2-------| 
|--------------------------------------0-------------0-------0---| 
|----------------------------------------------------------------| 
 
 |               |               |               |                 
|--------------------2-------9-----------------------------------| 
|0-------0---0---0---------------------------------------2-------| 
|--------------------------------------0-------------0-------0---| 
|----------------------------------------------------------------| 
 
 |               |               |               |                 
|--------------------2-------9-----------------------------------| 
|0-----------0---0---------------------------------------2-------| 
|--------------------------------------0-----0-------0-------0---| 
|----------------------------------------------------------------| 
 
 |               |               |               |                 
|--------------------2-------9-----------------------------------| 
|0-------0---0---0-------------------------------------------2---| 
|----------------------------------------0-----------0---0-------| 
|----------------------------------------------------------------| 
 
 |               |               |               |                 
|----------------------------5-----------------------------------| 
|--------------------3-------------------------------------------| 
|1-----------1---1---------------------------------------3-------| 
|--------------------------------------1-------------1-------1---| 
 
 |               |               |               |                 
|----------------------------5-----------------------------------| 
|--------------------3-------------------------------------------| 
|1-------1---1---1-------------------------------------------3---| 
|----------------------------------------------------1---1-------| 
 
 |               |               |               |                 
|----------------------------5-----------------------------------| 
|--------------------3-------------------------------------------| 
|1---1-------1-------------------------------------------3-------| 
|--------------------------------------1-------------1-------1---| 
 
 |               |               |               |                 
|----------------------------5-----------------------------------| 
|--------------------3-------------------------------------------| 
|1-----------1---1-----------------------------------------------| 
|----------------------------------------1---------------1-------| 
 
 |               |               |               |                 
|----------------------------1-----------------------------------| 
|----------------------------------------------------------------| 
|--------------------4-------------------4-----------4-------4---| 
|2---2-------2-------------------------------------------4-------| 
 
 |               |               |               |                 
|----------------------------1-----------------------------------| 
|----------------------------------------------------------------| 
|--------------------4-----------------------4-------4-------4---| 
|2-------2---2-------------------------------------------4-------| 
 
 |               |               |               |                 
|----------------------------1-----------------------------------| 
|----------------------------------------------------------------| 
|--------------------4-------------------4-----------4-------4---| 
|2---2-------2-------------------------------------------4-------| 
 
 |               |               |               |                 
|----------------------------1-------6---5---3-------------------| 
|------------------------------------------------4---3-----------| 
|--------------------4-----------------------------------4-------| 
|2-----------2---2-------------------------------------------4---| 
 
 |               |               |               |                 
|--------------------2-------9-----------------------------------| 
|0-----------0---0---------------------------------------2-------| 
|--------------------------------------0-------------0-------0---| 
|----------------------------------------------------------------| 
 
 |               |               |               |                 
|--------------------2-------9-----------------------------------| 
|0-------0---0---0---------------------------------------2-------| 
|--------------------------------------0-------------0-------0---| 
|----------------------------------------------------------------| 
 
 |               |               |               |                 
|--------------------2-------9-----------------------------------| 
|0-----------0---0---------------------------------------2-------| 
|--------------------------------------0-----0-------0-------0---| 
|----------------------------------------------------------------| 
 
 |               |               |               |                 
|--------------------2-------9-----------------------------------| 
|0-------0---0---0-------------------------------------------2---| 
|----------------------------------------0-----------0---0-------| 
|----------------------------------------------------------------| 
 
 |               |               |               |                 
|----------------------------5-----------------------------------| 
|--------------------3-------------------------------------------| 
|1-----------1---1---------------------------------------3-------| 
|--------------------------------------1-------------1-------1---| 
 
 |               |               |               |                 
|----------------------------5-----------------------------------| 
|--------------------3-------------------------------------------| 
|1-------1---1---1-------------------------------------------3---| 
|----------------------------------------------------1---1-------| 
 
 |               |               |               |                 
|----------------------------5-----------------------------------| 
|--------------------3-------------------------------------------| 
|1---1-------1-------------------------------------------3-------| 
|--------------------------------------1-------------1-------1---| 
 
 |               |               |               |                 
|----------------------------5-----------------------------------| 
|--------------------3-------------------------------------------| 
|1-----------1---1-----------------------------------------------| 
|----------------------------------------1---------------1-------| 
 
 |               |               |               |                 
|----------------------------1-----------------------------------| 
|----------------------------------------------------------------| 
|--------------------4-------------------4-----------4-------4---| 
|2---2-------2-------------------------------------------4-------| 
 
 |               |               |               |                 
|----------------------------1-----------------------------------| 
|----------------------------------------------------------------| 
|--------------------4-----------------------4-------4-------4---| 
|2-------2---2-------------------------------------------4-------| 
 
 |               |               |               |                 
|----------------------------1-----------------------------------| 
|----------------------------------------------------------------| 
|--------------------4-------------------4-----------4-------4---| 
|2---2-------2-------------------------------------------4-------| 
 
 |               |               |               |                 
|----------------------------1-------6---5---3-------------------| 
|------------------------------------------------4---3-----------| 
|--------------------4-----------------------------------4-------| 
|2-----------2---2-------------------------------------------4---| 
 
 |               |               |               |                 
|--------------------2-------9-----------------------------------| 
|0-----------0---0---------------------------------------2-------| 
|--------------------------------------0-------------0-------0---| 
|----------------------------------------------------------------| 
 
 |               |               |               |                 
|--------------------2-------9-----------------------------------| 
|0---0---0---0---0---------------------------------------2-------| 
|--------------------------------------0-----------0---------0---| 
|----------------------------------------------------------------| 
 
 |               |               |               |                 
|--------------------2-------9-----------------------------------| 
|0-----------0---0---------------------------------------2-------| 
|--------------------------------------0---0---------0-------0---| 
|----------------------------------------------------------------| 
 
 |               |               |               |                 
|--------------------2-------9-----------------------------------| 
|0-------0---0---0---------------------------------------2-------| 
|--------------------------------------0-------------0-------0---| 
|----------------------------------------------------------------| 
 
 |               |               |               |                 
|----------------------------5-----------------------------------| 
|--------------------3-------------------------------------------| 
|1-----------1-------------------------------------------3-------| 
|--------------------------------------1-------------1-------1---| 
 
 |               |               |               |                 
|----------------------------5-----------------------------------| 
|--------------------3-------------------------------------------| 
|1-------1---1---1-------------------------------------------3---| 
|----------------------------------------------------1---1-------| 
 
 |               |               |               |                 
|----------------------------5-----------------------------------| 
|--------------------3-------------------------------------------| 
|1---1-------1-------------------------------------------3-------| 
|--------------------------------------1-------------1-------1---| 
 
 |               |               |               |                 
|----------------------------5-----------------------------------| 
|--------------------3-------------------------------------------| 
|1---1-------1---1-----------------------------------------------| 
|--------------------------------------1-----------------1---1---| 
 
 |               |               |               |                 
|----------------------------1-----------------------------------| 
|----------------------------------------------------------------| 
|--------------------4-----------------4-------------4-----------| 
|2---2-------2-------------------------------------------4---2---| 
 
 |               |               |               |                 
|----------------------------1-----------------------------------| 
|----------------------------------------------------------------| 
|--------------------4---------------------4---------4-------4---| 
|--------2---2-------------------------------------------4-------| 
 
 |               |               |               |                 
|----------------------------1-----------------------------------| 
|----------------------------------------------------------------| 
|--------------------4-----------------4-------------4-----------| 
|2---2-------2-------------------------------------------4---2---| 
 
 |               |               |               |                 
|----------------------------1-------6---5---3---5---1-----------| 
|--------------------------------------------------------3-------| 
|--------------------4---------------------------------------4---| 
|------------2---2-----------------------------------------------| 
 
 |               |               |               |                 
|----------------------------------------------------------------| 
|----------------------------------------------------------------| 
|1-------------------------------3---------------0---1---2-------| 
|----------------2-----------------------------------------------| 
 
 |               |               |               |                 
|----------------------------------------------------------------| 
|----------------------------------------------------------------| 
|----------------------------------------------------------------| 
|----------------------------------------------------------------| 
 
 |               |               |               |                 
|----------------------------------------------------------------| 
|0-------------------------------2-------------------0---1-------| 
|----------------1-------------------------------4---------------| 
|----------------------------------------------------------------| 
 
 |               |               |               |                 
|----------------------------------------------------------------| 
|----------------------------------------------------------------| 
|----------------------------------------------------------------| 
|----------------------------------------------------------------| 
 
 |               |               |               |                 
|--------------------------------3---------------2---------------| 
|4---------------0-----------------------------------------------| 
|----------------------------------------------------------------| 
|----------------------------------------------------------------| 
 
 |               |               |               |                 
|0---------------------------------------------------------------| 
|------------0---------------------------------------------------| 
|----------------------------------------------------------------| 
|------------------------3---------------------------------------| 
 
 |               |               |               |                 
|----------------------------------------------------------------| 
|----------------------------------------------------------------| 
|----------------------------------------------------------------| 
|----------------------------------------------------------------| 
 
 |               |               |               |                 
|----------------------------------------------------------------| 
|--------------------------------------------------------------0-| 
|----------------------------------------------------------------| 
|----------------------------------------------------------------| 
 
 |               |               |               |                 
|------------------------------------------------2-0-------------| 
|----0-------0-------0---0-------------------0---------2---0-----| 
|----------------------------------------------------------------| 
|----------------------------------------------------------------| 
 
 |               |               |               |                 
|------------------------------------------------2-0-------------| 
|----0-----0---------0-0---------------------0---------2---0-----| 
|----------------------------------------------------------------| 
|----------------------------------------------------------------| 
 
 |               |               |               |                 
|------------------------------------------------2-0-------------| 
|----0-----0---------0-0---------------------0---------2-----0---| 
|----------------------------------------------------------------| 
|----------------------------------------------------------------| 
 
 |               |               |               |                 
|------------------------------------------------2---0-----------| 
|--0-------0---------2-0---------------------0---------2---0-----| 
|----------------------------------------------------------------| 
|----------------------------------------------------------------| 
 
 |               |               |               |                 
|------------------------------------------------2-0-------------| 
|--0-------0---------0-0---------------------0---------2---0-----| 
|----------------------------------------------------------------| 
|----------------------------------------------------------------| 
 
 |               |               |               |                 
|------------------------------------------------2-0-------------| 
|--0-------0-------0-----0-------------------0---------2-----0---| 
|----------------------------------------------------------------| 
|----------------------------------------------------------------| 
 
 |               |               |               |                 
|------------------------------------------------2-0-------------| 
|--0---------0-------0-0---------------------0---------2-----0---| 
|----------------------------------------------------------------| 
|----------------------------------------------------------------| 
 
 |               |               |               |                 
|------------------------------------------------2-0-------------| 
|--0-------0---------0---0-------------------0---------2---0-----| 
|----------------------------------------------------------------| 
|----------------------------------------------------------------| 
 
 |               |               |               |                 
|------------------------------------------------2-0-------------| 
|--0-------0---------0-0---------------------0---------2---0-----| 
|----------------------------------------------------------------| 
|----------------------------------------------------------------| 
 
 |               |               |               |                 
|------------------------------------------------2-0-------------| 
|--0-------0---------2-0---------------------0---------2---0-----| 
|----------------------------------------------------------------| 
|----------------------------------------------------------------| 
 
 |               |               |               |                 
|------------------------------------------------2-0-------------| 
|----0-----0---------0-0---------------------0---------2---0-----| 
|----------------------------------------------------------------| 
|----------------------------------------------------------------| 
 
 |               |               |               |                 
|------------------------------------------------2-0-------------| 
|--0-------0-----2-----0---------------------0---------2---------| 
|--------------------3---------------------------------------4---| 
|----------------------------------------------------------------| 
 
 |               |               |               |                 
|------------------------------------------------1---------------| 
|----------------------------------------------------4-1---------| 
|----4-------4-------4-4---------------------4---------------4---| 
|----------------------------------------------------------------| 
 
 |               |               |               |                 
|------------------------------------------------1---------------| 
|--------------------------------------------------4---1---------| 
|----4-------4-------1-4---------------------4---------------4---| 
|----------------------------------------------------------------| 
 
 |               |               |               |                 
|------------------------------------------------1---------------| 
|----------------------------------------------------4-1---------| 
|--4-------4---------4-4---------------------4-------------4-----| 
|----------------------------------------------------------------| 
 
 |               |               |               |                 
|------------------------------------------------1---------------| 
|--------------1-----------------------------------4---1---------| 
|--4-------4---------1---4---4---------------4---------------4---| 
|----------------------------------------------------------------| 
 
 |               |               |               |                 
|----------------------------------------------------------------| 
|0---------------------------------------------------------------| 
|----------------------------------------------------------------| 
|----------------------------------------------------------------| 
 
 
 
 

		  

See also:

bass Esperanza Spalding - I Know You Know bass Jaco Pastorius - Blackbird bass Jaco Pastorius - Cha cha bass Jaco Pastorius - Portrait of tracy bass Herbie Hancock - Cantaloupe Island bass Jaco Pastorius - Opus pocus
e-chords

Other versions:

bass Jaco Pastorius - Cut off
auto scroll beats size up size down change color hide chords drawings
tab show chords e-chords YouTube Clip e-chords hide all tabs e-chords go to top tab

share