Jaco Pastorius

home > Jaco Pastorius

Amazing grace Tab

Jaco Pastorius

Difficulty: BeginnerBeginner

by diegobass

tuner correct add songbook print version text version save to e-mail
chordsukulelecavacokeyboardtabbassdrumsharmonicsflute Guitar Pro
chords

Amazing grace

  		 
Jaco Pastorious 
Amazing Grace 
 
 
G--3.2------ 
D----------- 
A----------- 
E----------- 
 
|------------|------------|------------|---x--------| G 
|------------|------------|------------|------------| D  
|------------|------------|------------|------------| A 
|------------|------------|------------|------------| E 
 
 
G-|------5---3.8--------5---3.8--------5--------------| 
D-|--5------------3.2------------3.2------------5--5--| 
A-|----------------------------------------3.2--------| 
E-|---------------------------------------------------| 
 
G-|--5---3.8---------5----3.8---3.8---3.2----3.2------| 
D-|------------3.2------------------------------------| 
A-|---------------------------------------------------| 
E-|---------------------------------------------------| 
 
G-|--3.8---3.2---3.2---3.8----------5---3.8-----------| 
D-|--------------------------3.2---------------3.2----| 
A-|---------------------------------------------------| 
E-|---------------------------------------------------| 
 
G-|---5-----------------5---3.8--------5---3.8------5-| 
D-|-------------5---5-------------3.2----------3.2----| 
A-|-------3.2-----------------------------------------| 
E-|---------------------------------------------------| 
 
 
 

	  

Full key step upFull key step up
Half key step upHalf key step up
Half key step downHalf key step down
Full key step downFull key step down
Search Paypal
auto scroll beats size up size down change color hide chords drawings
tab show chords e-chords YouTube Clip e-chords hide all tabs e-chords go to top tab