Imagine Dragons

home > Imagine Dragons

Sucker For Pain Suicide Squad Bass Tab

Imagine Dragons

Difficulty: nolevelnolevel

by lucicamargo

tuner correct add songbook print version text version save to e-mail
chordsukulelecavacokeyboardtabbassdrumsharmonicsflute Guitar Pro
chords

Sucker For Pain Suicide Squad

  		
Intro 

G|--------12-14~--14-----------12-14-13~--13---------| 
D|-----14------------15-12-15----------------14------| 
A|--12------------------------------------------14---| 
E|---------------------------------------------------| 

G|--------12-14~--14-----------12-14-13~--13---------| 
D|-----14------------15-12-15----------------14------| 
A|--12------------------------------------------14---| 
E|---------------------------------------------------| 

G|--------12-14~--14-----------12-14-13~--13---------| 
D|-----14------------15-12-15----------------14------| 
A|--12------------------------------------------14---| 
E|---------------------------------------------------| 

G|--------12-14~--14-----------12-14-13~--13-PM------| 
D|-----14------------15-12-15------------------------| 
A|--12-----------------------------------------------| 
E|---------------------------------------------------| 


Verse 

G|---------------------------------------| 
D|------5h7-----5h7-----5h7--------------| 
A|----------5-5-----8-8-----7-7----------| 
E|--5-5-------------------------8-7------| 

G|---------------------------------------| 
D|------5h7-----5h7-----5h7--------------| 
A|----------5-5-----8-8-----7-7----------| 
E|--5-5-------------------------8-7------| 

G|----------------------------------------| 
D|------5h7-------5h7-----5h7-------------| 
A|----------0-5-5-----8-8-----7-7---------| 
E|--5-5---------------------------8-7-----| 

G|---------------------------------------| 
D|------5h7-----5h7-----5h7--------------| 
A|----------5-5-----8-8-----7-7-PM-------| 
E|--5-5----------------------------------| 


Chorus 


G|--------12-14~--14-----------12-14-13~--13---------| 
D|-----14------------15-12-15----------------14------| 
A|--12------------------------------------------14---| 
E|---------------------------------------------------| 

G|--------12-14~--14-----------12-14-13~--13-PM------| 
D|-----14------------15-12-15------------------------| 
A|--12-----------------------------------------------| 
E|---------------------------------------------------| 


Verse 

G|---------------------------------------| 
D|------5h7-----5h7-----5h7--------------| 
A|----------5-5-----8-8-----7-7----------| 
E|--5-5-------------------------8-7------| 

G|----------------------------------------| 
D|------5h7-------5h7-----5h7-------------| 
A|----------0-5-5-----8-8-----7-7--14\7---| 
E|--5-5-----------------------------------| 

G|---------------------------------------| 
D|------5h7-----5h7-----5h7--------------| 
A|----------5-5-----8-8-----7-7----------| 
E|--5-5-------------------------8-7------| 

G|---------------------------------------| 
D|------5h7-----5h7-----5h7--------------| 
A|----------5-5-----8-8-----7-7~---------| 
E|--5-5----------------------------------| 



Chorus 


G|--------12-14~--14-----------12-14-13~--13---------| 
D|-----14------------15-12-15----------------14------| 
A|--12------------------------------------------14---| 
E|---------------------------------------------------| 

G|--------12-14~--14-----------12-14-13~--13-PM------| 
D|-----14------------15-12-15------------------------| 
A|--12-----------------------------------------------| 
E|---------------------------------------------------| 

G|--------12-14~--14-----------12-14-13~--13---------| 
D|-----14------------15-12-15----------------14------| 
A|--12------------------------------------------14---| 
E|---------------------------------------------------| 

G|--------12-14~--14-----------12-14-13~--13---------| 
D|-----14------------15-12-15----------------14------| 
A|--12------------------------------------------14---| 
E|---------------------------------------------------| 


Verse 

G|---------------------------------------| 
D|------5h7-----5h7-----5h7PM------------| 
A|----------5-5-----8-8-------7---5------| 
E|--5-5-------------------------7--------| 

G|---------------------------------------| 
D|------5h7------------------------------| 
A|----------5-5--5-PM--------------------| 
E|--5-5------------------19\5------------| 

G|---------------------------------------| 
D|------5h7-----5h7-----5h7--------------| 
A|----------5-5-----8-8-----7-7----------| 
E|--5-5-------------------------8-7------| 

G|---------------------------------------| 
D|------5h7-------5h7-----5h7------------| 
A|----------0-5-5-----8-8-----7-7-14\7---| 
E|--5-5----------------------------------| 

G|---------------------------------------| 
D|------5h7-----5h7-----5h7--------------| 
A|----------5-5-----8-8-----7-7----------| 
E|--5-5-------------------------8-7------| 

G|---------------------------------------| 
D|------5h7-------5h7-----5h7------------| 
A|----------0-5-5-----8-8-----7-7--------| 
E|--5-5---------------------------8-7----| 

G|---------------------------------------| 
D|------5h7-----5h7-----5h7--------------| 
A|----------5-5-----8-8-----7-7----------| 
E|--5-5-------------------------8-7------| 

G|---------------------------------------| 
D|------5h7-------5h7-----5h7------------| 
A|----------0-5-5-----8-8-----7-7-PM-----| 
E|--5-5----------------------------------| 

G|---------------------------------------| 
D|------5h7-----5h7-----5h7--------------| 
A|----------5-5-----8-8-----7-7----------| 
E|--5-5-------------------------8-7------| 

G|---------------------------------------| 
D|------5h7-------5h7-----5h7------------| 
A|----------0-5-5-----8-8-----7-PM-------| 
E|--5-5----------------------------------| 

G|---------------------------------------| 
D|------5h7-------5h7-----5h7------------| 
A|----------0-5-5-----8-8-----7-7--------| 
E|--5-5---------------------------8-7----| 

G|---------------------------------------| 
D|------5h7-------PM------5h7------------| 
A|----------0-5-5-----8-8-----7-7--------| 
E|--5-5---------------------------0-4----| 

G|---------------------------------------| 
D|------5h7-----5h7-----5h7--------------| 
A|----------5-5-----8-8-----7-7----------| 
E|--5-5-------------------------8-7------| 

G|---------------------------------------| 
D|------5h7-------5h7-----5h7------------| 
A|----------0-5-5-----8-8-----7-7~-------| 
E|--5-5----------------------------------| 


Chorus 


G|--------12-14~--14-----------12-14-13~--13---------| 
D|-----14------------15-12-15----------------14------| 
A|--12------------------------------------------14---| 
E|---------------------------------------------------| 

G|--------12-14~--14-----------12-14-13~--13---------| 
D|-----14------------15-12-15----------------14------| 
A|--12------------------------------------------14---| 
E|---------------------------------------------------| 

G|--------12-14~--14-----------12-14-13~--13-PM------| 
D|-----14------------15-12-15------------------------| 
A|--12-----------------------------------------------| 
E|---------------------------------------------------| 

G|--------12-14~--14-----------12-14-13~--13---------| 
D|-----14------------15-12-15----------------14------| 
A|--12------------------------------------------14---| 
E|---------------------------------------------------| 


Verse 

G|-----------| 
D|-----------| 
A|--7--------| 
E|----7-0-4--| 

G|---------------------------------------| 
D|------5h7-----5h7-----5h7--------------| 
A|----------5-5-----8-8-----7-7----------| 
E|--5-5-------------------------8-7------| 

G|---------------------------------------| 
D|------5h7-------5h7-----5h7------------| 
A|----------0-5-5-----8-8-----7-7-14\7---| 
E|--5-5----------------------------------| 

G|---------------------------------------| 
D|------5h7-------5h7-----5h7------------| 
A|----------0-5-5-----8-8-----7-7--------| 
E|--5-5---------------------------0-4----| 

G|---------------------------------------| 
D|------5h7-----5h7-----5h7--------------| 
A|----------5-5-----8-8-----7-7-14\7-----| 
E|--5-5----------------------------------| 


Outro 

G|--------------------------------| 
D|------5h7-------5h7-------------| 
A|----------0-5-5-----5~----------| 
E|--5-5------------------5~-------| 


************************************ 
| h   Hammer-on 
| /   Slide up 
| \   Slide down 
| PM  Palm mute 
************************************ 

Made by: Rafal Czarnecki 
Song: Sucker for pain - Imagine Dragons 
Tab based on: Barbara Mazur vid (   https://www.youtube.com/watch?v=LZRZgkkXn9g   ). 
	  

Search Paypal
auto scroll beats size up size down change color hide chords drawings
tab show chords e-chords YouTube Clip e-chords hide all tabs e-chords go to top tab