Red Hot Chili Peppers

home > Red Hot Chili Pepp...

Californication Bass Tab

Red Hot Chili Peppers

Difficulty: ExpertExpert

by Windows

tuner correct add songbook print version text version save to e-mail
chordsukulelecavacokeyboardtabbassdrummharmonicsflute Guitar Pro
chords

Californication

Year: 1999 - Album: Californication

(Anthony Kiedis / Flea / John Frusciante)

	  
Intro: 

G|-----9-9-7-h-9-p-7------------7-7--------------9-9-7-h-9-p-7-----------10-10-7---------------| 
D|-7-7----------------10--------------10---7-7-----------------10------------------------------| 
A|------------------------8-8--------------------------------------8-8-------------------------| 
E|---------------------------------------------------------------------------------------------| 

Verse 1: 

G|-----9-9-7-h-9-p-7------------7-7--------------9-9-7-h-9-p-7-----------10-10-7---------------| 
D|-7-7----------------10--------------10---7-7-----------------10------------------------------| (2x) 
A|------------------------8-8--------------------------------------8-8-------------------------| 
E|---------------------------------------------------------------------------------------------| 

G|---------------------------------------------------------------------------------------------| 
D|---------------------------------------------------------------------------------------------| 
A|-3-3-3-3----------------5-5-5-5--------------------------------------------------------------| 
E|---------3-3-3-3-1-1-1-1---------------------------------------------------------------------| 
  
G|-----9-9-7-h-9-p-7------------7-7--------------9-9-7-h-9-p-7-----------10-10-7---------------| 
D|-7-7----------------10--------------10---7-7-----------------10------------------------------| (2x) 
A|------------------------8-8--------------------------------------8-8-------------------------| 
E|---------------------------------------------------------------------------------------------| 
  
G|---------------------------------------------------------------------------------------------| 
D|---------------------------------------------------------------------------------------------| 
A|-3-3-3-3----------------5-5-5-5--------------------------------------------------------------| 
E|---------3-3-3-3-1-1-1-1---------------------------------------------------------------------| 

Pré-Chorus 1: 

G|-----------------------------------------------------------------------------------------------| 
D|-7--7-7-7--7-7--7-7--9-10----------------10-9----7--7-7-7--7-7--7-7-9-10--------10/14-12-10-9-7| 
A|--------------------------8--8-8-8--8-8-8----10-------------------------8-8-8-8----------------| 
E|-----------------------------------------------------------------------------------------------| 

G|--------------------------------------------------------------------------| 
D|-7--7-7-7--7-7--7-7--9-10----------------10-9----7--7-7-7--7-7--7-7-9-10--| 
A|--------------------------8--8-8-8--8-8-8----10---------------------------| 
E|--------------------------------------------------------------------------| 

G|----------------------------------------------------------------------------------------------------| 
D|----------------10-9--7--7-7-7--7-7--7-7-9-10----------------10-9--7--7-7-7--7-7--7-7-10-9----------| 
A|-8--8-8-8--8-8-8----10------------------------8--8-8-8--8-8-8----10-----------------------8-8-8-8/3-| 
E|----------------------------------------------------------------------------------------------------| 

Chorus 1: 

G|-----------------------------------------------| 
D|-----------------------------------------------| 
A|-3-3-5------5-5-7-------3-3-5-5-7--------------| 
E|------3--3-3-----5--5-5------3----5------------| 

Verse 2: It's the same verse 1

G|-----9-9-7-h-9-p-7------------7-7--------------9-9-7-h-9-p-7-----------10-10-7---------| 
D|-7-7----------------10--------------10---7-7-----------------10------------------------|  (2x) 
A|------------------------8-8--------------------------------------8-8-------------------| 
E|---------------------------------------------------------------------------------------| 

G|---------------------------------------------------------------------------------------------| 
D|---------------------------------------------------------------------------------------------| 
A|-3-3-3-3----------------5-5-5-5--------------------------------------------------------------| 
E|---------3-3-3-3-1-1-1-1---------------------------------------------------------------------| 

G|-----9-9-7-h-9-p-7------------7-7--------------9-9-7-h-9-p-7-----------10-10-7---------| 
D|-7-7----------------10--------------10---7-7-----------------10------------------------|  (2x) 
A|------------------------8-8--------------------------------------8-8-------------------| 
E|---------------------------------------------------------------------------------------| 

G|---------------------------------------------------------------------------------------------| 
D|---------------------------------------------------------------------------------------------| 
A|-3-3-3-3----------------5-5-5-5--------------------------------------------------------------| 
E|---------3-3-3-3-1-1-1-1---------------------------------------------------------------------| 

Pré-Chorus 2: 

G|----------------------------------------------------------------------------------------------| 
D|-7--7-7-7--7-7--7-7--9-10----------------10-9----7--7-7-7--7-7--7-7-9-10---------------10-9---| 
A|--------------------------8--8-8-8--8-8-8----10-------------------------8--8-8-8--8-8-8----10-| 
E|----------------------------------------------------------------------------------------------| 

G|--------------------------------------------------------------------------| 
D|-7--7-7-7--7-7--7-7--9-10----------------10-9----7--7-7-7--7-7--7-7-9-10--| 
A|--------------------------8--8-8-8--8-8-8----10---------------------------| 
E|--------------------------------------------------------------------------| 

G|----------------------------------------------------------------------------------------------------| 
D|-7--7-7-7--7-7--7-7--9-10----------------10-9----7--7-7-7--7-7--7-7-9-10----------------------------| 
A|--------------------------8--8-8-8--8-8-8----10-------------------------8--8-8-8/15-15-15-15-15-15--| 
E|----------------------------------------------------------------------------------------------------| 

Chorus 2:
 
G|----------------------------------------------------------| 
D|----------------------------------------------------------| 
A|-3-3-5------5-5-7-------3-3-5-5-7-------------------------| 
E|------3--3-3-----5--5-5------3----5-5-5-5-5-5-5-----------| 

G|-----------------------------------------------| 
D|-----------------------------------------------| 
A|-3-3-5------5-5-7-------3-3-5-5-7--------------| 
E|------3--3-3-----5--5-5------3----5-5-5-5-5----| 

Solo:
 
G|-14--------------------------11-14-| 
D|------------18---------16----------| (2x) 
A|-----------------------------------| 
E|-14--14-14--14--14-14--14/11-11-11-| 

G|-------7------| 
D|---9--7---7--7| 
A|--9--5---7--7-| 
E|-7------5--0--| 

G|-14--------------------------11-14-| 
D|------------18---------16----------| 
A|-----------------------------------| 
E|-14--14-14--14--14-14--14/11-11-11-| 

G|-------7------| 
D|---9--7---7--7| (3x) 
A|--9--5---7--7-| 
E|-7------5--0--| 

Verse 3:
 
G|-----9-9-7-h-9-p-7------------7-7--------------9-9-7-h-9-p-7-----------10-10-7---------| 
D|-7-7----------------10--------------10---7-7-----------------10------------------------|  (2x) 
A|------------------------8-8--------------------------------------8-8-------------------| 
E|---------------------------------------------------------------------------------------| 

G|---------------------------------------------------------------------------------------| 
D|---------------------------------------------------------------------------------------| 
A|-3-3-3-3----------------5-5-5-5--------------------------------------------------------| 
E|---------3-3-3-3-1-1-1-1---------------------------------------------------------------| 
  
Pré-Chorus 3:
 
G|----------------------------------------------| 
D|-7--7-7-7--7-7--7-7--9-10----------------10-9-| 
A|--------------------------8--8-8-8--8-8-8-----| 
E|----------------------------------------------| 

G|----------------| 
D|----------------| 
A|-8-7-7-5-5------| 
E|----------6-5-3-| 

G|----------------------------------------------------------------------------------------------| 
D|-7--7-7-7--7-7--7-7--9-10----------------10-9----7--7-7-7--7-7--7-7-9-10---------------10-9---| 
A|--------------------------8--8-8-8--8-8-8----10-------------------------8--8-8-8--8-8-8----10-| 
E|----------------------------------------------------------------------------------------------| 

G|----------------------------------------------------------------------------------------------------| 
D|-7--7-7-7--7-7--7-7--9-10----------------10-9----7--7-7-7--7-7--7-7-9-10----------------------------| 
A|--------------------------8--8-8-8--8-8-8----10-------------------------8--8-8-8/15-15-15-15-15-15--| 
E|----------------------------------------------------------------------------------------------------| 

Chorus 3:
 
G|----------------------------------------------------------| 
D|----------------------------------------------------------| 
A|-3-3-5------5-5-7-------3-3-5-5-7-------------------------| 
E|------3--3-3-----5--5-5------3-----5-5-5-5-5-5-5----------| 

G|-----------------------------------------------| 
D|-----------------------------------------------| 
A|-3-3-5------5-5-7-------3-3-5-5-7--------------| 
E|------3--3-3-----5--5-5------3----5~-----------| 

	  

there isn't a video lesson for this song

request
Search
auto scroll beats size up size down change color hide chords drawings
tab show chords e-chords YouTube Clip e-chords hide all tabs e-chords go to top tab