Herman Van Veen

Zo Vrolijk

Herman Van Veen

bass

by  IRONPOWER4EVER

save to print version add songbook text version e-mail correct tuner
chordsukulelecavacokeyboardtabbassdrumsharmonicaflute Guitar Pro
close

there isn't a video lesson for this song

chords

Zo Vrolijk

	  		
Intro 
G|----------------------------------------------------------------| 
D|----------------------------------------------------------------| 
A|-3-3-333--------------------3-3-333-----------------------------|  x2 
E|----------5-5-555---1-1-111-------------------------------------| 

Verse   
G|----------------------------------------------------------------| 
D|----------------------------------------------------------------| 
A|-3-3--3---------------------------------------3-3-3--3----------| 
E|-------3-3---3-5-5---5-0-0--0-1-1----1-3-3--3-------------------| 

G|----------------------------------------------------------------| 
D|----------------------------------------------------------------| 
A|-3-3--3---------------------------------------3-3-3--3----------| 
E|-------3-3---3-5-5---5-0-0--0-1-1----1-3-3--3-------------------| 


Solo Bas: 
G|----------------------------------------------------------------| 
D|--------3333---------------------3333---------------------------| 
A|----6--6----3--4-6-6------6--6--6----3-4-6-6--------------------| 
E|-4------------------4444---4----------------4444----------------| 

Solo Sax (optional 😊 ): 
G|-13-18-16-13-12----10-13-12-10----------10----------------------| 
D|----------------13-------------13-10-11---13-11-10----10--------| 
A|---------------------------------------------------13-----------| 
E|----------------------------------------------------------------| 

G|-13-18-16-13-12----10-13-12-10----------10----------------------| 
D|----------------13-------------13-10-11---13-11-10--------------| 
A|---------------------------------------------------13-11--------| 
E|----------------------------------------------------------------| 

Solo Bas 2e keer met modulatie: 
G|----------------------------------------------------------------| 
D|--------3333----------------------------------------------------| 
A|----6--6----3--4-6-6------6-----3333--------6666----------------| 
E|-4------------------4444----6--6----3--4--6---------------------| 

Verse  
G|----------------------------------------------------------------| 
D|----------------------------------------------------------------| 
A|-3-3--3---------------------------------------3-3-3--3----------|  x2 
E|-------3-3---3-5-5---5-0-0--0-1-1----1-3-3--3-------------------| 

Modulatie 
G|----------------------------------------------------------------| 
D|----------------------------------------------------------------| 
A|-4-4-4---------1-1---1------------------------4-4-4-4-----------|  x2 
E|-------4-4---4---------1-1--1-2-2---2-4-4---4-------------------| 

Solo Bas: 
G|----------------------------------------------------------------| 
D|--------4444---------------------4444---------------------------| 
A|----7--7----4--5-7-7------7--7--7----4-5-7-7--------------------| 
E|-5------------------5555---5----------------5555----------------| 
		  

auto scroll beats size up size down change color hide chords drawings
tab show chords e-chords YouTube Clip e-chords hide all tabs e-chords go to top tab

share