Guano Apes

Open Your Eyes (ver. 2)

Guano Apes

bass

save to print version add songbook text version e-mail correct tuner
chordsukulelecavacokeyboardtabbassdrumsharmonicaflute Guitar Pro
close

there isn't a video lesson for this song

chords

Open Your Eyes (ver. 2)

	  		

 		
   
Album:  Proud like a God

Tuning: Standart (E A D G)

Tabbed by R4Z0R


\ - slide down
h - hammer on
p - pull off
x - dead note
S - Slap
P - pop


Chorus

G|----------------------------|
D|----------------------------|
A|------2-2-3-3-3--5-5-7-7-7\-|
E|0--0------------------------|


Verse

  S  S  S P     S  S  S  S       S  S  S P     S P S P 

G|-------------------------| x3 |----------------------|
D|--------0h2p0------------|    |--------0h2p0---3---3-|
A|-------------------------|    |----------------------|
E|0--x--0-------0--x--0--1-|    |0--x--0-------1---1---|


Bridge

G|--------|
D|--------|
A|3-------|
E|---3--0-|


Interlude/Outro

G|---------------|
D|---------------|
A|---------------|
E|0-0--0-0--0-0--|

		  

See also:

bass Dio - Holy Diver bass The Clash - I Fought The Law bass Pixies - Monkey Gone To Heaven bass Marcus Miller - Moons bass 112 - Only You bass Guano Apes - Open Your Eyes (ver. 2)
e-chords

Other versions:

bass Afi - Open Your Eyes bass Goldfinger - Open Your Eyes bass Guano Apes - Open Your Eyes bass Sum 41 - Open your Eyes bass Goldfinger - Open Your Eyes (ver. 2) bass Guano Apes - Open Your Eyes (ver. 2)
auto scroll beats size up size down change color hide chords drawings
tab show chords e-chords YouTube Clip e-chords hide all tabs e-chords go to top tab

share