The Clash

London Calling (ver. 2)

The Clash

bass Expert expert

save to print version add songbook text version e-mail correct tuner
chordsukulelecavacokeyboardtabbassdrumsharmonicaflute Guitar Pro
close

there isn't a video lesson for this song

chords

London Calling (ver. 2)

	  		

Normal Tuning

INTRO
          
          
          Guitar plays chords Em, Am7 x2 then,
          
          
          --------------------------------------------------------------------------
          ------------------------10------------\-----------------------------------
          -2-/7------------7---10-----------------2-/7------------7-\---------------
          -------------------8----------------------------------------8------------- x2
          
          
          VERSE
          
          
          --------------------------------------------------------------------------------
          ---2--------------------3-------------------------------------------------------
          -2--------------2-2-2-2--------------2-2-2-2--------------2-2-2-2---------------
          ---------------------------------------------3--------------------3------------- x4
          
          
          CHORUS
          
          
          --------------------------------
          ---2------------2-4-5--5-5--5---
          -2----------------------------5-
          -------------------------------- x3 (2nd & 3rd times without 1st B.)
          
          
          ---------------------------------------
          -2-------------------------------------
          ----------------5--4--3--2-/5--4--3--2-
          ---------------------------------------
          
          
          REPEAT VERSE
          
          
          REPEAT CHORUS
          
          
          INSTRUMENTAL
          Verse riff x4
          
          
          REPEAT CHORUS
          
          
          Repeat intro including non-bass start
          
          
          OUTRO
          Intro bass riff x2
          and then
          ---------------------
          ---------------------
          -2-/7----------------
          ---------------------

		  

See also:

bass Allister - Flypaper bass The Cure - Boys Don't Cry bass Allister - Somewhere Down In Fullerton bass American Hi-Fi - The Art Of Losing (ver. 2) bass The Cure - Three Imaginary Boys bass The Clash - Magnifecent Seven
e-chords

Other versions:

bass The Clash - London Calling bass The Clash - London Calling (ver. 2)
auto scroll beats size up size down change color hide chords drawings
tab show chords e-chords YouTube Clip e-chords hide all tabs e-chords go to top tab

share