Green Day

Warning Bass Tab

Green Day

Difficulty: nolevelnolevel

tuner correct add songbook print version text version save to e-mail
chordsukuleleukulelecavacokeyboardtabbassdrummharmonicsflute Guitar Pro
close

there isn't a video lesson for this song

chords

Warning

Year: 2000 - Album: International Superhits!

Key:  A More
Warning Key EE
Warning Key FF
Warning Key F#F#
Warning Key GG(one step down)
Warning Key G#G#(half step down)
Warning Key AA(original key)
Warning Key A#A#(half step up)
Warning Key BB(one step up)
Warning Key CC
Warning Key C#C#
Warning Key DD
Warning Key D#D#
  		

 
""
Warning
Standard Tuning

Verse
G ----------------0-0------------
D --------0-0-2-4-----4-2-0-0----
A 0-0-2-4---------------------4-2
E ------------------------------- (Repeat Multiple Times)

Chorus
G ---------------------
D ---------------------
A 0-4-0-----0-0-4-0----
E ------3-0---------3-0

That is basicly it.



SlappinBaSSPlayer4

	  

Search Paypal
auto scroll beats size up size down change color hide chords drawings
tab show chords e-chords YouTube Clip e-chords hide all tabs e-chords go to top tab

share with facebook