Good Charlotte

home > Good Charlotte

The Innocent (ver. 3) Bass Tab

Good Charlotte

Difficulty: nolevelnolevel

tuner correct add songbook print version text version save to e-mail
chordsukulelecavacokeyboardtabbassdrumsharmonicsflute Guitar Pro
chords

The Innocent (ver. 3)

  		

I tabbed this real quick strumming may not be right if you listen to the song you'll get it.

Verse:
G-------------------------------------------------------------------|
D------------------------------------------------------------------ |
A-5-5-5-5-5-5-5-5-------------------------------------------------- |
E-----------------5-5-5-5-5-5-5-5--7-7-7-7-7-7-7-5-3-3-3-3-3-3-3-3  |

on the second verse play A5 (x8) E5 (x8) then ring E3

Bridge:
G------------------------------------------------------------ |
D------------------------------------------------------------ |
A-5-5-5-5-5-5-5-5-------------------------------------------- |
E-----------------5-5-5-5-5-5-5-5---x-x-3-x-x-3-x-x-3-x-x-3-- |


Chorus:
G----------------------------------------------------------------------------------------- |
D----------------------------------------------------------------------------------------- |
A-5-5-5----------------------------------------------------------------------------------- |
E--------5-5---7-7-7----2-2--3-3-3-3-3-3-3-3-5-5-5-5-5-5-5-5-7-7-7-7-7-7-7--(3*)---(5*)- |
 the ( )'s play the 2nd time only

Guitar Solo:
Play verse once then bridge once

Ending:
G -------------------------------------------------------------------------------  |
D-------------------------------------------------------------------------------   |
A--5*---------------------------------------------------------------------------   |
E  ----5-5--7*----2-2---3-3-3-3-3-3-3-3-5-5-5-5-5-5-5-5-7-7-7-7-7-7-7-7-7-7-7-7-7  |

Ending  Pt. 2:
G------------------------------------------------------------------------------------------------  |
D------------------------------------------------------------------------------------------------  |
A5-5---------------------------------------------------------------------------------------------  |
E----5-5--7-7--2-2--3-3-3-3-3-3-3-3-5-5-5-5-5-5-5-5-7-7-7-7-7-7-7-7-3-3-3-3-3-3-3-5-5-5-5-5-5-5-5 |

Verse x5
Bridge x1
Chorus x2
Verse x3
Bridge x1
Chrous x2
Solo x2
Ending x1
Ending pt 2 x1

	  

Search Paypal
auto scroll beats size up size down change color hide chords drawings
tab show chords e-chords YouTube Clip e-chords hide all tabs e-chords go to top tab