Good Charlotte

home > Good Charlotte

Last Night Bass Tab

Good Charlotte

Difficulty: nolevelnolevel

by gustsilva

tuner correct add songbook print version text version save to e-mail
chordsukulelecavacokeyboardtabbassdrumsharmonicsflute Guitar Pro
chords

Last Night

  		Intro 2x:                             
G|-------------------------------| |------------------| 
D|--------33-3-33----------------| |------------------| 
A|11-1-11---------3333333-33-3-33| |44444444444444445\| 
E|-------------------------------| |------------------| 

Verso 4x: 
G|--------------------------------------------------| 
D|--------------------------------------------------| 
A|55----55----53----53----5----5------1----1/3----3/| 
E|-------------------------1----1----1--------------| 

Refrão: 
G|-----------------------------| 
D|-------3---------------------|   (2x) 
A|1-------------3333333-33-3-33| 
E|-----------------------------| 

G|-------------------------------| |------------------| 
D|--------33-3-33----------------| |------------------|   (2x) 
A|11-1-11---------3333333-33-3-33| |44444444444444445\| 
E|-------------------------------| |------------------| 

Verso 
G|--------------------------------------------------| 
D|--------------------------------------------------|   (2x) 
A|55----55----53----53----5----5------1----1/3----8/| 
E|-------------------------1----1----1--------------| 

G|-------------------------------------------------| 
D|--------------------------3-33-33-33 3-----------|   (2x) 
A|55-55-55-55-5p3-33-33-33-3------------1-11-133333| 
E|-------------------------------------------------| 

Refrão: 
G|-----------------------------| 
D|--------3--------------------|   (2x) 
A|1-------------3333333-33-3-33| 
E|-----------------------------| 

G|-------------------------------| |----------------| 
D|--------33-3-33----------------| |----------------|   (4x) 
A|11-1-11---------3333333-33-3-33| |4444444444444444| 
E|-------------------------------| |----------------| 

Interlúdio: 
G|--------------------------------------------------------------------| 
D|--------------------------------------------------------------------|   (2x) 
A|555-555-555-555-5p44-444-444-444-4p33-333-333-333-3p22-222-222222222| 
E|--------------------------------------------------------------------| 

G|-----------------------------------------| 
D|-----------------------------------------| 
A|1-------2-------3-------4---4444444444444| 
E|-----------------------------------------| 

Refrão: 
G|-----------------------------| 
D|-----------------------------|   (2x) 
A|1-------------3333333-33-3-33| 
E|-------1---------------------| 

G|-------------------------------| |----------------| 
D|-------------------------------| |----------------|   (2x) 
A|11-1-11---------3333333-33-3-33| |4444444444444444| 
E|--------11-1-11----------------| |----------------| 

G|-----------------| 
D|-----------------| 
A|44444444444444445| 
E|-----------------| 
	  

Search Paypal
auto scroll beats size up size down change color hide chords drawings
tab show chords e-chords YouTube Clip e-chords hide all tabs e-chords go to top tab