Good Charlotte

home > Good Charlotte

I Heard You (ver. 3) Bass Tab

Good Charlotte

Difficulty: nolevelnolevel

tuner correct add songbook print version text version save to e-mail
chordsukulelecavacokeyboardtabbassdrumsharmonicsflute Guitar Pro
chords

I Heard You (ver. 3)

  		

Intro and Chorus 

G-----------| 
D-----------| 
A--5--------| 
E----5--2--3| 

Verse 

G------------------------------------------------------------------------| 
D------------------------------------------------------------------------| 
A---5-5-5-5-5-5-5-5-----------------------------------------------------| 
E-------------------5-5-5-5-5-5-5-5--2-2-2-2-2-2-2-2--3-3-3-3-3-3-3-3| 
 
e-mail me at [email protected] if u have n e comments or corrections

	  

Search Paypal
auto scroll beats size up size down change color hide chords drawings
tab show chords e-chords YouTube Clip e-chords hide all tabs e-chords go to top tab