Good Charlotte

home > Good Charlotte

I Don't Wanna Stop Bass Tab

Good Charlotte

Difficulty: nolevelnolevel

by gustsilva

tuner correct add songbook print version text version save to e-mail
chordsukulelecavacokeyboardtabbassdrumsharmonicsflute Guitar Pro
chords

I Don't Wanna Stop

  		

G-------------------------------------------------------------------- 
D-------------------------------------------------------------------- 
A------------------0h2--2--2-2-2----0h3--3--3-3-3/55-55-55-55-------- 
E--0h3--3--3-3-3----------------------------------------------------- 

the next riff is very similar except a little part on the end which he plays quick 

G-------------------------------------------------------------------------- 
D-------------------------------------------------------------------------- 
A------------------0h2--2--2-2-2----0h3--3--3-3-3/5-3-5h3-0-3-0------------ 
E--0h3--3--3-3-3----------------------------------------------------------- 

Chorus:  (and i know....) 

G----------------------------------------------------------------------- 
D----------------------------------------------------------------------- 
A-----------5-5-5-5--2-2-2-2--3-3-3-3----------------------------------- 
E--3-3-3-3-------------------------------------------------------------- 

outro: (and this gone on...) this part's hard to hear so i'm not sure on it 
this is only what i think he plays 
G-------------------------------------------------------------------------- 
D-------------------------------------------------------------------------- 
A-----5-5--3-3--2-2--------------5-5-5-5--2-2-2-2--3-3-3-3----------------- 
E-------------------3-3--3-3-3-3------------------------------------------- 
	  

Search Paypal
auto scroll beats size up size down change color hide chords drawings
tab show chords e-chords YouTube Clip e-chords hide all tabs e-chords go to top tab