Good Charlotte

home > Good Charlotte

Hold On (ver. 3) Bass Tab

Good Charlotte

Difficulty: ExpertExpert

tuner correct add songbook print version text version save to e-mail
chordsukulelecavacokeyboardtabbassdrumsharmonicsflute Guitar Pro
chords

Hold On (ver. 3)

  		


Verse x 4 
G|----------------|
D|----------------| 
A|3333----0000----|
E|----3333----1111| 

Bridge x 1
G|--------------------------------------------------|
D|--------------------------------------------------|
A|--------0000000-00-0------------------------------|
E|3---1----------3--3-3-1--3---1---111111111111-11-1| 

Chorus x 1 
G|-------------------------------------|
D|-------------------------------------|
A|3333-2222-0000------3333-2222-0000---|
E|---------------1111---------------0-1|  

Verse x 4 
Bridge x 1 

Second Chorus  
G|-------------------|  |-----------------|
D|-------------------|  |-----------------|
A|3333-2222-0000-----|x3|3333-2222-0000---|x2 
E|---------------1111|  |--------------0-1|  


Second Bridge (Guitar goes 4 first bar thn u cum in, thn stop and same thng again)
G|---------------------|
D|---------------------|
A|---------------------|x6 (listen to song to get the feel and time of this part)
E|1--11111111--11111111|

Second Chorus(but x3 but is x6) 

IM preti sure this is all good and correct so hope u have fun like i have with this song
thnx!

	  

Search Paypal
auto scroll beats size up size down change color hide chords drawings
tab show chords e-chords YouTube Clip e-chords hide all tabs e-chords go to top tab