Goo Goo Dolls

home > Goo Goo Dolls

Think About Me Bass Tab

Goo Goo Dolls

Difficulty: BeginnerBeginner

tuner correct add songbook print version text version save to e-mail
chordsukulelecavacokeyboardtabbassdrumsharmonicsflute Guitar Pro
chords

Think About Me

Year: 2002 - Album: Live in Buffalo: July 4, 2004

  		

 - 

Tuning: Standard E A D G

INTRO: No Bass, Bass comes in when drums kick in

CHORUS:

-------------------------------------
-------------------------------------
-----------1--33333------------------
-33333--1----------------------------

VERSE:

----------------------------------------
----------------------------------------
-33333--000----------000000-------------
-------------333333----------333-11111--

BRIDGE:

------------------------------------------------
------------------------------------------------
---------------------------------000000-333333--
-33 33-333--11 11 111 33 33 333-----------------

BRIDGE 2: "And all you want is something I don't need"

-------------------------------------------------
-------------------------------------------------
--0----------------------------------------------
-----3---1---------------------------------------

SONG SETUP:

INTRO
CHORUS x2
VERSE x2
BRIDGE
CHORUS x2
VERSE x2
BRIDGE 
CHORUS
BRIDGE 2
VERSE
BRIDGE
CHORUS x2

Any probs, email me at [email protected] cheers

	  

Search Paypal
auto scroll beats size up size down change color hide chords drawings
tab show chords e-chords YouTube Clip e-chords hide all tabs e-chords go to top tab