Goo Goo Dolls

home > Goo Goo Dolls

Black Ballons Bass Tab

Goo Goo Dolls

Difficulty: ExpertExpert

tuner correct add songbook print version text version save to e-mail
chordsukulelecavacokeyboardtabbassdrumsharmonicsflute Guitar Pro
chords

Black Ballons

Year: 1998 - Album: Dizzy up the Girl

  		

chris dunne
please rate this tab!!
[email protected]
Enjoy.


TUNE 1/2 STEP DOWN.

THE BASS DOESN'T COME IN UNTIL THE LAST LINE OF THE FIRST VERSE

---------------------------------------------------------
---------------------------------------------------------
---------------------------------------------------------
------------------0-0-0-0-0-0-0-0-3-3-3-3-3-3-3-3--------
"But on your knees~"

LINK

---------------------------
---------------------------
-5-5-5--5-5-5-5---------------
----------------3-3-3--3-3-3-3--- (X2)

VERSE 2

---------------------------
---------------------------
-5-5-5--5-5----------------
------------3-3-3--3-3----- (X3)

-------------------------------------------
-------4-5-7-7-7-7-7-7-7-7-5-5-5-5-5-5-5-5-
-2-4-5-------------------------------------
-------------------------------------------

CHORUS

-----------------------------------------
-----------------------------------------
-------------------------5-5-5-5---------
-7-7-7---5-5-5-5-3-3-3------------------- (X3)

-----------------------------------------
-----------------------------------------
-----------------------------------------
-3-3-3---5-5-----------------------------

VERSE 3
(SAME AS VERSE 2)

CHORUS

SOLO

-------------------------------------------------
-------------------------------------------------
-------------------------------------------------
-2-2-2-2-2-2-2-2-3-3-3-3-3-3-3-3-7-7-7-7-7-7-7-7-

-------------------------------------------------
-------------------------------------------------
-------------------------------------------------
-5-5-5-5-5-5-5-5-2-2-2-2-2-2-2-2-3-3-3-3-3-3-3-3-

----------------------------------------------------
----------------------------------------------------
----------------------------------------------------
-7-7-7---5-5-5-5-3-3-3-3-3-3-3-3-3---3---3---2--0//3

BRIDGE
----------------------------------------------------------------
----------------------------------------------------------------
----------------------------------------------------------------
-2-2-2-2-2-2-2-2-3-3-3-3-3-3-3-3-3-5-5-5-5-5-5-5-5-5-5-5-5-5-5-5

CHORUS

SAME AS FIRST AND SECOND CHORUS +
-----------------------------------
-----------------------------------
---------------------------5-5-5-5- (X3)
-7-7-7---5-5-5-5---3-3-3-----------

--------------------------------------------------------------------
--------------------------------------------------------------------
----------------------------------------------------------------5~--
-3-3-3-5-5-2-2-2-2-2-2-2-2--0~--------------------3~----------------
           All because I'm, And I'll become, What you became to me

	  

Search Paypal
auto scroll beats size up size down change color hide chords drawings
tab show chords e-chords YouTube Clip e-chords hide all tabs e-chords go to top tab